  0
SECTION
  2
HEADER
  9
$ACADVER
  1
AC1018
  9
$ACADMAINTVER
 70
   104
  9
$DWGCODEPAGE
  3
ANSI_1252
  9
$LASTSAVEDBY
  1
johnd
  9
$INSBASE
 10
-120.0
 20
-120.0
 30
0.0
  9
$EXTMIN
 10
-160.5211264240071
 20
8.953013411618911
 30
0.0
  9
$EXTMAX
 10
-9.040413978350001
 20
89.20470767502076
 30
0.0
  9
$LIMMIN
 10
0.0
 20
0.0
  9
$LIMMAX
 10
237.6000000000001
 20
183.6
  9
$ORTHOMODE
 70
     0
  9
$REGENMODE
 70
     1
  9
$FILLMODE
 70
     1
  9
$QTEXTMODE
 70
     0
  9
$MIRRTEXT
 70
     1
  9
$LTSCALE
 40
2.396821967584337
  9
$ATTMODE
 70
     1
  9
$TEXTSIZE
 40
0.2
  9
$TRACEWID
 40
0.05
  9
$TEXTSTYLE
  7
STANDARD
  9
$CLAYER
  8
0
  9
$CELTYPE
  6
BYLAYER
  9
$CECOLOR
 62
   256
  9
$CELTSCALE
 40
1.0
  9
$DISPSILH
 70
     0
  9
$DIMSCALE
 40
1.0
  9
$DIMASZ
 40
0.18
  9
$DIMEXO
 40
0.0625
  9
$DIMDLI
 40
0.38
  9
$DIMRND
 40
0.0
  9
$DIMDLE
 40
0.0
  9
$DIMEXE
 40
0.18
  9
$DIMTP
 40
0.0
  9
$DIMTM
 40
0.0
  9
$DIMTXT
 40
0.18
  9
$DIMCEN
 40
0.09
  9
$DIMTSZ
 40
0.0
  9
$DIMTOL
 70
     0
  9
$DIMLIM
 70
     0
  9
$DIMTIH
 70
     0
  9
$DIMTOH
 70
     1
  9
$DIMSE1
 70
     0
  9
$DIMSE2
 70
     0
  9
$DIMTAD
 70
     0
  9
$DIMZIN
 70
     1
  9
$DIMBLK
  1

  9
$DIMASO
 70
     1
  9
$DIMSHO
 70
     0
  9
$DIMPOST
  1
 \X
  9
$DIMAPOST
  1

  9
$DIMALT
 70
     1
  9
$DIMALTD
 70
     0
  9
$DIMALTF
 40
25.4
  9
$DIMLFAC
 40
1.0
  9
$DIMTOFL
 70
     0
  9
$DIMTVP
 40
0.0
  9
$DIMTIX
 70
     0
  9
$DIMSOXD
 70
     0
  9
$DIMSAH
 70
     0
  9
$DIMBLK1
  1

  9
$DIMBLK2
  1

  9
$DIMSTYLE
  2
STANDARD
  9
$DIMCLRD
 70
     0
  9
$DIMCLRE
 70
     0
  9
$DIMCLRT
 70
     0
  9
$DIMTFAC
 40
1.0
  9
$DIMGAP
 40
0.09375
  9
$DIMJUST
 70
     0
  9
$DIMSD1
 70
     0
  9
$DIMSD2
 70
     0
  9
$DIMTOLJ
 70
     1
  9
$DIMTZIN
 70
     0
  9
$DIMALTZ
 70
     0
  9
$DIMALTTZ
 70
     0
  9
$DIMUPT
 70
     0
  9
$DIMDEC
 70
     4
  9
$DIMTDEC
 70
     4
  9
$DIMALTU
 70
     2
  9
$DIMALTTD
 70
     0
  9
$DIMTXSTY
  7
DIM
  9
$DIMAUNIT
 70
     0
  9
$DIMADEC
 70
     0
  9
$DIMALTRND
 40
0.0
  9
$DIMAZIN
 70
     0
  9
$DIMDSEP
 70
    46
  9
$DIMATFIT
 70
     3
  9
$DIMFRAC
 70
     0
  9
$DIMLDRBLK
  1

  9
$DIMLUNIT
 70
     4
  9
$DIMLWD
 70
    -2
  9
$DIMLWE
 70
    -2
  9
$DIMTMOVE
 70
     0
  9
$LUNITS
 70
     2
  9
$LUPREC
 70
     6
  9
$SKETCHINC
 40
0.1
  9
$FILLETRAD
 40
0.0
  9
$AUNITS
 70
     0
  9
$AUPREC
 70
     0
  9
$MENU
  1
j-11-12
  9
$ELEVATION
 40
0.0
  9
$PELEVATION
 40
0.0
  9
$THICKNESS
 40
0.0
  9
$LIMCHECK
 70
     0
  9
$CHAMFERA
 40
0.0
  9
$CHAMFERB
 40
0.0
  9
$CHAMFERC
 40
0.0
  9
$CHAMFERD
 40
0.0
  9
$SKPOLY
 70
     0
  9
$TDCREATE
 40
2447074.468048611
  9
$TDUCREATE
 40
2447074.634715278
  9
$TDUPDATE
 40
2456505.446261285
  9
$TDUUPDATE
 40
2456505.612927951
  9
$TDINDWG
 40
6.8278777199
  9
$TDUSRTIMER
 40
6.8278777199
  9
$USRTIMER
 70
     1
  9
$ANGBASE
 50
0.0
  9
$ANGDIR
 70
     0
  9
$PDMODE
 70
     0
  9
$PDSIZE
 40
0.0
  9
$PLINEWID
 40
0.0
  9
$SPLFRAME
 70
     0
  9
$SPLINETYPE
 70
     6
  9
$SPLINESEGS
 70
     8
  9
$HANDSEED
  5
3ECDE
  9
$SURFTAB1
 70
     6
  9
$SURFTAB2
 70
     6
  9
$SURFTYPE
 70
     6
  9
$SURFU
 70
     6
  9
$SURFV
 70
     6
  9
$UCSBASE
  2

  9
$UCSNAME
  2

  9
$UCSORG
 10
0.0
 20
0.0
 30
0.0
  9
$UCSXDIR
 10
1.0
 20
0.0
 30
0.0
  9
$UCSYDIR
 10
0.0
 20
1.0
 30
0.0
  9
$UCSORTHOREF
  2

  9
$UCSORTHOVIEW
 70
     0
  9
$UCSORGTOP
 10
0.0
 20
0.0
 30
0.0
  9
$UCSORGBOTTOM
 10
0.0
 20
0.0
 30
0.0
  9
$UCSORGLEFT
 10
0.0
 20
0.0
 30
0.0
  9
$UCSORGRIGHT
 10
0.0
 20
0.0
 30
0.0
  9
$UCSORGFRONT
 10
0.0
 20
0.0
 30
0.0
  9
$UCSORGBACK
 10
0.0
 20
0.0
 30
0.0
  9
$PUCSBASE
  2

  9
$PUCSNAME
  2

  9
$PUCSORG
 10
0.0
 20
0.0
 30
0.0
  9
$PUCSXDIR
 10
1.0
 20
0.0
 30
0.0
  9
$PUCSYDIR
 10
0.0
 20
1.0
 30
0.0
  9
$PUCSORTHOREF
  2

  9
$PUCSORTHOVIEW
 70
     0
  9
$PUCSORGTOP
 10
0.0
 20
0.0
 30
0.0
  9
$PUCSORGBOTTOM
 10
0.0
 20
0.0
 30
0.0
  9
$PUCSORGLEFT
 10
0.0
 20
0.0
 30
0.0
  9
$PUCSORGRIGHT
 10
0.0
 20
0.0
 30
0.0
  9
$PUCSORGFRONT
 10
0.0
 20
0.0
 30
0.0
  9
$PUCSORGBACK
 10
0.0
 20
0.0
 30
0.0
  9
$USERI1
 70
     0
  9
$USERI2
 70
     0
  9
$USERI3
 70
     0
  9
$USERI4
 70
     0
  9
$USERI5
 70
     0
  9
$USERR1
 40
0.0
  9
$USERR2
 40
0.0
  9
$USERR3
 40
0.0
  9
$USERR4
 40
0.0
  9
$USERR5
 40
0.0
  9
$WORLDVIEW
 70
     1
  9
$SHADEDGE
 70
     3
  9
$SHADEDIF
 70
    70
  9
$TILEMODE
 70
     1
  9
$MAXACTVP
 70
    16
  9
$PINSBASE
 10
0.0
 20
0.0
 30
0.0
  9
$PLIMCHECK
 70
     0
  9
$PEXTMIN
 10
1.000000000000000E+20
 20
1.000000000000000E+20
 30
1.000000000000000E+20
  9
$PEXTMAX
 10
-1.000000000000000E+20
 20
-1.000000000000000E+20
 30
-1.000000000000000E+20
  9
$PLIMMIN
 10
0.0
 20
0.0
  9
$PLIMMAX
 10
12.0
 20
9.0
  9
$UNITMODE
 70
     0
  9
$VISRETAIN
 70
     0
  9
$PLINEGEN
 70
     1
  9
$PSLTSCALE
 70
     0
  9
$TREEDEPTH
 70
  3020
  9
$CMLSTYLE
  2
STANDARD
  9
$CMLJUST
 70
     0
  9
$CMLSCALE
 40
1.0
  9
$PROXYGRAPHICS
 70
     1
  9
$MEASUREMENT
 70
     0
  9
$CELWEIGHT
370
    -1
  9
$ENDCAPS
280
     0
  9
$JOINSTYLE
280
     0
  9
$LWDISPLAY
290
     0
  9
$INSUNITS
 70
     0
  9
$HYPERLINKBASE
  1

  9
$STYLESHEET
  1
Grayscale.ctb
  9
$XEDIT
290
     1
  9
$CEPSNTYPE
380
     0
  9
$PSTYLEMODE
290
     1
  9
$FINGERPRINTGUID
  2
{EC6724CA-C864-11D3-BCD5-0050DA2CF987}
  9
$VERSIONGUID
  2
{1C486291-4EA6-461B-96D2-CB2E3F8066D4}
  9
$EXTNAMES
290
     1
  9
$PSVPSCALE
 40
0.0
  9
$OLESTARTUP
290
     0
  9
$SORTENTS
280
   127
  9
$INDEXCTL
280
     0
  9
$HIDETEXT
280
     0
  9
$XCLIPFRAME
290
     0
  9
$HALOGAP
280
     0
  9
$OBSCOLOR
 70
   257
  9
$OBSLTYPE
280
     0
  9
$INTERSECTIONDISPLAY
280
     0
  9
$INTERSECTIONCOLOR
 70
   257
  9
$DIMASSOC
280
     1
  9
$PROJECTNAME
  1

  0
ENDSEC
  0
SECTION
  2
CLASSES
  0
CLASS
  1
ACDBDICTIONARYWDFLT
  2
AcDbDictionaryWithDefault
  3
ObjectDBX Classes
 90
        0
 91
        1
280
     0
281
     0
  0
CLASS
  1
PLOTSETTINGS
  2
AcDbPlotSettings
  3
ObjectDBX Classes
 90
        0
 91
        1
280
     0
281
     0
  0
CLASS
  1
SORTENTSTABLE
  2
AcDbSortentsTable
  3
ObjectDBX Classes
 90
        0
 91
        3
280
     0
281
     0
  0
CLASS
  1
MATERIAL
  2
AcDbMaterial
  3
ObjectDBX Classes
 90
     1024
 91
        3
280
     0
281
     0
  0
CLASS
  1
DIMASSOC
  2
AcDbDimAssoc
  3
"AcDbDimAssoc|Product Desc:     AcDim ARX App For Dimension|Company:          Autodesk, Inc.|WEB Address:      www.autodesk.com"
 90
        0
 91
        0
280
     0
281
     0
  0
CLASS
  1
VISUALSTYLE
  2
AcDbVisualStyle
  3
ObjectDBX Classes
 90
     4095
 91
       16
280
     0
281
     0
  0
CLASS
  1
TABLESTYLE
  2
AcDbTableStyle
  3
ObjectDBX Classes
 90
     4095
 91
        1
280
     0
281
     0
  0
CLASS
  1
DICTIONARYVAR
  2
AcDbDictionaryVar
  3
ObjectDBX Classes
 90
        0
 91
        1
280
     0
281
     0
  0
ENDSEC
  0
SECTION
  2
TABLES
  0
TABLE
  2
VPORT
  5
8
102
{ACAD_XDICTIONARY
360
3ECBA
102
}
330
0
100
AcDbSymbolTable
 70
     1
  0
VPORT
  5
3E933
330
8
100
AcDbSymbolTableRecord
100
AcDbViewportTableRecord
  2
*Active
 70
     0
 10
0.0
 20
0.0
 11
1.0
 21
1.0
 12
-83.07054532550314
 22
49.44071537260835
 13
0.0
 23
0.0
 14
0.25
 24
0.25
 15
12.0
 25
12.0
 16
0.0
 26
0.0
 36
1.0
 17
0.0
 27
0.0
 37
0.0
 40
129.399700016613
 41
1.522251308900523
 42
50.0
 43
0.0
 44
0.0
 50
0.0
 51
0.0
 71
     0
 72
   100
 73
     1
 74
     1
 75
     0
 76
     0
 77
     0
 78
     0
281
     0
 65
     1
110
0.0
120
0.0
130
0.0
111
1.0
121
0.0
131
0.0
112
0.0
122
1.0
132
0.0
 79
     0
146
0.0
  0
ENDTAB
  0
TABLE
  2
LTYPE
  5
5
330
0
100
AcDbSymbolTable
 70
     4
  0
LTYPE
  5
12
330
5
100
AcDbSymbolTableRecord
100
AcDbLinetypeTableRecord
  2
BYBLOCK
 70
     0
  3

 72
    65
 73
     0
 40
0.0
  0
LTYPE
  5
13
330
5
100
AcDbSymbolTableRecord
100
AcDbLinetypeTableRecord
  2
BYLAYER
 70
     0
  3

 72
    65
 73
     0
 40
0.0
  0
LTYPE
  5
14
330
5
100
AcDbSymbolTableRecord
100
AcDbLinetypeTableRecord
  2
CONTINUOUS
 70
     0
  3
Solid line
 72
    65
 73
     0
 40
0.0
  0
LTYPE
  5
4C
330
5
100
AcDbSymbolTableRecord
100
AcDbLinetypeTableRecord
  2
HIDDEN
 70
     0
  3
_ _ _ _ _ _ _ _ _ _ _ _ _ _ _ _ _ _ _ _ _ _ _
 72
    65
 73
     2
 40
0.375
 49
0.25
 74
     0
 49
-0.125
 74
     0
  0
LTYPE
  5
54A
330
5
100
AcDbSymbolTableRecord
100
AcDbLinetypeTableRecord
  2
CENTER
 70
     0
  3
____ _ ____ _
 72
    65
 73
     4
 40
6.532894736842101
 49
4.083059210526313
 74
     0
 49
-0.8166118421052626
 74
     0
 49
0.8166118421052626
 74
     0
 49
-0.8166118421052626
 74
     0
  0
LTYPE
  5
962A
330
5
100
AcDbSymbolTableRecord
100
AcDbLinetypeTableRecord
  2
CENTERX2
 70
     0
  3
Center (2x) ________  __  ________  __  _____
 72
    65
 73
     4
 40
0.8
 49
0.5
 74
     0
 49
-0.1
 74
     0
 49
0.1
 74
     0
 49
-0.1
 74
     0
  0
ENDTAB
  0
TABLE
  2
LAYER
  5
2
102
{ACAD_XDICTIONARY
360
603A
102
}
330
0
100
AcDbSymbolTable
 70
     6
  0
LAYER
  5
F
330
2
100
AcDbSymbolTableRecord
100
AcDbLayerTableRecord
  2
0
 70
     0
 62
     7
  6
CONTINUOUS
370
    -3
390
23C4
  0
LAYER
  5
50
330
2
100
AcDbSymbolTableRecord
100
AcDbLayerTableRecord
  2
H
 70
     0
 62
     5
  6
HIDDEN
370
    -3
390
23C4
  0
LAYER
  5
51
330
2
100
AcDbSymbolTableRecord
100
AcDbLayerTableRecord
  2
D
 70
     0
 62
     1
  6
CONTINUOUS
370
    -3
390
23C4
  0
LAYER
  5
53
330
2
100
AcDbSymbolTableRecord
100
AcDbLayerTableRecord
  2
DEFPOINTS
 70
     0
 62
     7
  6
CONTINUOUS
290
     0
370
    -3
390
23C4
  0
LAYER
  5
54B
330
2
100
AcDbSymbolTableRecord
100
AcDbLayerTableRecord
  2
1
 70
     0
 62
     7
  6
CONTINUOUS
370
    -3
390
23C4
  0
LAYER
  5
6032
330
2
100
AcDbSymbolTableRecord
100
AcDbLayerTableRecord
  2
Layer1
 70
     0
 62
     2
  6
CONTINUOUS
370
    -3
390
23C4
  0
ENDTAB
  0
TABLE
  2
STYLE
  5
3
330
0
100
AcDbSymbolTable
 70
     4
  0
STYLE
  5
10
330
3
100
AcDbSymbolTableRecord
100
AcDbTextStyleTableRecord
  2
STANDARD
 70
     0
 40
0.0
 41
1.0
 50
0.0
 71
     0
 42
0.2
  3
romans.shx
  4

  0
STYLE
  5
4B
330
3
100
AcDbSymbolTableRecord
100
AcDbTextStyleTableRecord
  2
DIM
 70
     0
 40
0.0
 41
0.7
 50
0.0
 71
     0
 42
0.12
  3
SIMPLEX
  4

  0
STYLE
  5
54C
330
3
100
AcDbSymbolTableRecord
100
AcDbTextStyleTableRecord
  2
SIMPLEX
 70
     0
 40
0.0
 41
1.0
 50
0.0
 71
     0
 42
3.5
  3
simplex
  4

  0
STYLE
  5
3D66C
330
3
100
AcDbSymbolTableRecord
100
AcDbTextStyleTableRecord
  2
SLDTEXTSTYLE0
 70
     0
 40
0.0
 41
0.75
 50
0.0
 71
     0
 42
0.2
  3
TXT
  4

  0
ENDTAB
  0
TABLE
  2
VIEW
  5
6
330
0
100
AcDbSymbolTable
 70
     0
  0
ENDTAB
  0
TABLE
  2
UCS
  5
7
330
0
100
AcDbSymbolTable
 70
     0
  0
ENDTAB
  0
TABLE
  2
APPID
  5
9
330
0
100
AcDbSymbolTable
 70
     2
  0
APPID
  5
11
330
9
100
AcDbSymbolTableRecord
100
AcDbRegAppTableRecord
  2
ACAD
 70
     0
  0
APPID
  5
5F8E
330
9
100
AcDbSymbolTableRecord
100
AcDbRegAppTableRecord
  2
DCO15
 70
     0
  0
ENDTAB
  0
TABLE
  2
DIMSTYLE
  5
A
330
0
100
AcDbSymbolTable
 70
     4
100
AcDbDimStyleTable
 71
     1
340
50E
  0
DIMSTYLE
105
50E
330
A
100
AcDbSymbolTableRecord
100
AcDbDimStyleTableRecord
  2
STANDARD
 70
     0
  3
 \X
 73
     0
 78
     1
147
0.09375
170
     1
171
     0
274
     0
277
     4
340
4B
  0
DIMSTYLE
105
3D66D
330
A
100
AcDbSymbolTableRecord
100
AcDbDimStyleTableRecord
  2
SLDDIMSTYLE28
 70
     0
 41
0.13
 44
0.0
 78
    12
 79
     3
140
0.1041666667
144
16.0
147
0.0260416667
148
0.000000001
170
     1
173
     1
272
     0
276
     2
277
     5
284
    12
340
3D66C
  0
DIMSTYLE
105
3E070
330
A
100
AcDbSymbolTableRecord
100
AcDbDimStyleTableRecord
  2
SLDDIMSTYLE12
 70
     0
 41
0.13
 44
0.0
 45
0.000000001
 78
    12
 79
     3
140
0.1041666667
144
16.0
147
0.0260416667
148
0.000000001
170
     1
172
     1
173
     1
271
     5
272
     5
276
     2
277
     5
284
    12
289
     0
340
3D66C
  0
DIMSTYLE
105
3E071
330
A
100
AcDbSymbolTableRecord
100
AcDbDimStyleTableRecord
  2
SLDDIMSTYLE13
 70
     0
 41
0.13
 44
0.0
 45
0.000000001
 78
    12
 79
     3
140
0.1041666667
144
16.0
147
0.0260416667
148
0.000000001
170
     1
173
     1
271
     5
272
     5
276
     2
277
     5
284
    12
340
3D66C
  0
ENDTAB
  0
TABLE
  2
BLOCK_RECORD
  5
1
330
0
100
AcDbSymbolTable
 70
     9
  0
BLOCK_RECORD
  5
18
102
{ACAD_XDICTIONARY
360
6086
102
}
330
1
100
AcDbSymbolTableRecord
100
AcDbBlockTableRecord
  2
*MODEL_SPACE
340
23C7
  0
BLOCK_RECORD
  5
15
330
1
100
AcDbSymbolTableRecord
100
AcDbBlockTableRecord
  2
*PAPER_SPACE
340
23C8
  0
BLOCK_RECORD
  5
1C
330
1
100
AcDbSymbolTableRecord
100
AcDbBlockTableRecord
  2
HINGE
340
0
  0
BLOCK_RECORD
  5
600E
330
1
100
AcDbSymbolTableRecord
100
AcDbBlockTableRecord
  2
gskt-2
340
0
310
2800000020000000200000000100080000000000000400000000000000000000000000000000000000000000000080000080000000808000800000008000800080800000C0C0C000C0DCC000F0CAA6000020400000206000002080000020A0000020C0000020E00000400000004020000040400000406000004080000040A0
310
000040C0000040E00000600000006020000060400000606000006080000060A0000060C0000060E00000800000008020000080400000806000008080000080A0000080C0000080E00000A0000000A0200000A0400000A0600000A0800000A0A00000A0C00000A0E00000C0000000C0200000C0400000C0600000C0800000C0
310
A00000C0C00000C0E00000E0000000E0200000E0400000E0600000E0800000E0A00000E0C00000E0E00040000000400020004000400040006000400080004000A0004000C0004000E00040200000402020004020400040206000402080004020A0004020C0004020E000404000004040200040404000404060004040800040
310
40A0004040C0004040E00040600000406020004060400040606000406080004060A0004060C0004060E00040800000408020004080400040806000408080004080A0004080C0004080E00040A0000040A0200040A0400040A0600040A0800040A0A00040A0C00040A0E00040C0000040C0200040C0400040C0600040C08000
310
40C0A00040C0C00040C0E00040E0000040E0200040E0400040E0600040E0800040E0A00040E0C00040E0E00080000000800020008000400080006000800080008000A0008000C0008000E00080200000802020008020400080206000802080008020A0008020C0008020E00080400000804020008040400080406000804080
310
008040A0008040C0008040E00080600000806020008060400080606000806080008060A0008060C0008060E00080800000808020008080400080806000808080008080A0008080C0008080E00080A0000080A0200080A0400080A0600080A0800080A0A00080A0C00080A0E00080C0000080C0200080C0400080C0600080C0
310
800080C0A00080C0C00080C0E00080E0000080E0200080E0400080E0600080E0800080E0A00080E0C00080E0E000C0000000C0002000C0004000C0006000C0008000C000A000C000C000C000E000C0200000C0202000C0204000C0206000C0208000C020A000C020C000C020E000C0400000C0402000C0404000C0406000C0
310
408000C040A000C040C000C040E000C0600000C0602000C0604000C0606000C0608000C060A000C060C000C060E000C0800000C0802000C0804000C0806000C0808000C080A000C080C000C080E000C0A00000C0A02000C0A04000C0A06000C0A08000C0A0A000C0A0C000C0A0E000C0C00000C0C02000C0C04000C0C06000
310
C0C08000C0C0A000F0FBFF00A4A0A000808080000000FF0000FF000000FFFF00FF000000FF00FF00FFFF0000FFFFFF00000000000000000000000000000000000000000000000000000000000000000000000000000000FEFEFEFEFEFEFEFEFEFEFEFEFEFEFEFEFEFE0000000000000000000000000000FE00000000000000
310
000000000000000000FE0000000000000000000000FEFEFEFE00000000000000000000000000000000FEFEFEFE0000000000000000FE00000000000000000000000000000000000000000000FE0000000000000000FE00000000000000000000000000000000000000000000FE0000000000000000FE0000000000FEFEFEFE
310
FEFEFEFEFEFEFEFE0000000000FE0000000000000000FE00000000FE000000000000000000000000FE00000000FE0000000000000000FE000000FE0000000000000000000000000000FE000000FE0000000000000000FE0000FE00000000000000000000000000000000FE0000FE0000000000000000FE0000FE0000000000
310
0000000000000000000000FE0000FE0000000000000000FE0000FE00000000000000000000000000000000FE0000FE0000000000000000FE0000FE00000000000000000000000000000000FE0000FE0000000000000000FE0000FE00000000000000000000000000000000FE0000FE0000000000000000FE0000FE00000000
310
000000000000000000000000FE0000FE0000000000000000FE0000FE00000000000000000000000000000000FE0000FE0000000000000000FE0000FE00000000000000000000000000000000FE0000FE0000000000000000FE000000FE0000000000000000000000000000FE000000FE0000000000000000FE000000FE0000
310
000000000000000000000000FE000000FE0000000000000000FE00000000FE000000000000000000000000FE00000000FE0000000000000000FE00000000FE000000000000000000000000FE00000000FE0000000000000000FE0000000000FE00000000000000000000FE0000000000FE0000000000000000FE0000000000
310
FE00000000000000000000FE0000000000FE0000000000000000FE000000000000FEFEFEFEFEFEFEFEFEFE000000000000FE000000000000000000FE0000000000000000000000000000000000000000FE0000000000000000000000FE000000000000000000000000000000000000FE00000000000000000000000000FE00
310
000000000000000000000000000000FE000000000000000000000000000000FE0000000000000000000000000000FE0000000000000000000000000000000000FEFEFEFE000000000000FEFEFEFE00000000000000000000000000000000000000000000FEFEFEFEFEFE000000000000000000000000000000000000000000
310
0000000000000000000000000000000000000000000000000000000000000000000000000000000000000000000000000000000000000000
102
{BLKREFS
331
3E80F
331
3E80E
102
}
1001
ACAD
1000
DesignCenter Data
1002
{
1070
     1
1070
     1
1002
}
  0
BLOCK_RECORD
  5
6025
330
1
100
AcDbSymbolTableRecord
100
AcDbBlockTableRecord
  2
flash-section-new
340
0
310
2800000020000000200000000100080000000000000400000000000000000000000000000000000000000000000080000080000000808000800000008000800080800000C0C0C000C0DCC000F0CAA6000020400000206000002080000020A0000020C0000020E00000400000004020000040400000406000004080000040A0
310
000040C0000040E00000600000006020000060400000606000006080000060A0000060C0000060E00000800000008020000080400000806000008080000080A0000080C0000080E00000A0000000A0200000A0400000A0600000A0800000A0A00000A0C00000A0E00000C0000000C0200000C0400000C0600000C0800000C0
310
A00000C0C00000C0E00000E0000000E0200000E0400000E0600000E0800000E0A00000E0C00000E0E00040000000400020004000400040006000400080004000A0004000C0004000E00040200000402020004020400040206000402080004020A0004020C0004020E000404000004040200040404000404060004040800040
310
40A0004040C0004040E00040600000406020004060400040606000406080004060A0004060C0004060E00040800000408020004080400040806000408080004080A0004080C0004080E00040A0000040A0200040A0400040A0600040A0800040A0A00040A0C00040A0E00040C0000040C0200040C0400040C0600040C08000
310
40C0A00040C0C00040C0E00040E0000040E0200040E0400040E0600040E0800040E0A00040E0C00040E0E00080000000800020008000400080006000800080008000A0008000C0008000E00080200000802020008020400080206000802080008020A0008020C0008020E00080400000804020008040400080406000804080
310
008040A0008040C0008040E00080600000806020008060400080606000806080008060A0008060C0008060E00080800000808020008080400080806000808080008080A0008080C0008080E00080A0000080A0200080A0400080A0600080A0800080A0A00080A0C00080A0E00080C0000080C0200080C0400080C0600080C0
310
800080C0A00080C0C00080C0E00080E0000080E0200080E0400080E0600080E0800080E0A00080E0C00080E0E000C0000000C0002000C0004000C0006000C0008000C000A000C000C000C000E000C0200000C0202000C0204000C0206000C0208000C020A000C020C000C020E000C0400000C0402000C0404000C0406000C0
310
408000C040A000C040C000C040E000C0600000C0602000C0604000C0606000C0608000C060A000C060C000C060E000C0800000C0802000C0804000C0806000C0808000C080A000C080C000C080E000C0A00000C0A02000C0A04000C0A06000C0A08000C0A0A000C0A0C000C0A0E000C0C00000C0C02000C0C04000C0C06000
310
C0C08000C0C0A000F0FBFF00A4A0A000808080000000FF0000FF000000FFFF00FF000000FF00FF00FFFF0000FFFFFF0000000000000000000000000000000000000000000000000000000000000000000000000000000000FF000000000000000000000000000000000000000000000000000000000000FF00FF0000000000
310
00000000000000000000000000000000000000000000000000FFFF000000000000000000000000000000000000000000000000000000000000FFFFFF000000000000000000000000000000000000000000000000000000000000FFFF000000000000000000000000000000000000000000000000000000000000FFFF000000
310
000000000000000000000000000000000000000000000000000000FFFF000000000000000000000000000000000000000000000000000000000000FFFF000000000000000000000000000000000000000000000000000000000000FFFF000000000000000000000000000000000000000000000000000000000000FF000000
310
0000000000000000000000000000000000000000000000000000000000FF0000000000000000000000000000000000000000000000000000000000000000FF0000000000000000000000000000000000000000000000000000000000000000FFFF000000000000000000000000000000000000000000000000000000000000
310
0000FF0000000000000000000000000000000000000000000000000000000000000000FF0000000000000000000000000000000000000000000000000000000000000000FF00000000000000000000000000000000000000000000000000000000000000FFFFFFFFFFFFFFFC00000000000000000000000000000000000000
310
0000000000FF000000000000FC000000000000000000000000000000000000000000000000FF000000000000FC000000000000000000000000000000000000000000000000FF000000000000FC000000000000000000000000000000000000000000000000FF000000000000FC000000000000000000000000000000000000
310
000000000000FF000000000000FC000000000000000000000000000000000000000000000000FF000000000000FC000000000000000000000000000000000000000000000000FFFFFFFFFFFFFFFC000000000000000000000000000000000000000000000000FF000000000000000000000000000000000000000000000000
310
00000000000000FF00000000000000000000000000000000000000000000000000000000000000FF00000000000000000000000000000000000000000000000000000000000000FF00000000000000FF0000000000000000000000000000000000000000000000FFFFFFFFFFFFFFFFFF000000000000000000000000000000
310
000000000000000000FFFFFFFFFFFFFF00000000000000000000000000000000000000000000000000000000000000000000000000000000
102
{BLKREFS
331
3E7F3
331
3E8CB
102
}
1001
ACAD
1000
DesignCenter Data
1002
{
1070
     1
1070
     1
1002
}
  0
BLOCK_RECORD
  5
6816
102
{ACAD_XDICTIONARY
360
6958
102
}
330
1
100
AcDbSymbolTableRecord
100
AcDbBlockTableRecord
  2
advel
340
0
310
2800000020000000200000000100080000000000000400000000000000000000000000000000000000000000000080000080000000808000800000008000800080800000C0C0C000C0DCC000F0CAA6000020400000206000002080000020A0000020C0000020E00000400000004020000040400000406000004080000040A0
310
000040C0000040E00000600000006020000060400000606000006080000060A0000060C0000060E00000800000008020000080400000806000008080000080A0000080C0000080E00000A0000000A0200000A0400000A0600000A0800000A0A00000A0C00000A0E00000C0000000C0200000C0400000C0600000C0800000C0
310
A00000C0C00000C0E00000E0000000E0200000E0400000E0600000E0800000E0A00000E0C00000E0E00040000000400020004000400040006000400080004000A0004000C0004000E00040200000402020004020400040206000402080004020A0004020C0004020E000404000004040200040404000404060004040800040
310
40A0004040C0004040E00040600000406020004060400040606000406080004060A0004060C0004060E00040800000408020004080400040806000408080004080A0004080C0004080E00040A0000040A0200040A0400040A0600040A0800040A0A00040A0C00040A0E00040C0000040C0200040C0400040C0600040C08000
310
40C0A00040C0C00040C0E00040E0000040E0200040E0400040E0600040E0800040E0A00040E0C00040E0E00080000000800020008000400080006000800080008000A0008000C0008000E00080200000802020008020400080206000802080008020A0008020C0008020E00080400000804020008040400080406000804080
310
008040A0008040C0008040E00080600000806020008060400080606000806080008060A0008060C0008060E00080800000808020008080400080806000808080008080A0008080C0008080E00080A0000080A0200080A0400080A0600080A0800080A0A00080A0C00080A0E00080C0000080C0200080C0400080C0600080C0
310
800080C0A00080C0C00080C0E00080E0000080E0200080E0400080E0600080E0800080E0A00080E0C00080E0E000C0000000C0002000C0004000C0006000C0008000C000A000C000C000C000E000C0200000C0202000C0204000C0206000C0208000C020A000C020C000C020E000C0400000C0402000C0404000C0406000C0
310
408000C040A000C040C000C040E000C0600000C0602000C0604000C0606000C0608000C060A000C060C000C060E000C0800000C0802000C0804000C0806000C0808000C080A000C080C000C080E000C0A00000C0A02000C0A04000C0A06000C0A08000C0A0A000C0A0C000C0A0E000C0C00000C0C02000C0C04000C0C06000
310
C0C08000C0C0A000F0FBFF00A4A0A000808080000000FF0000FF000000FFFF00FF000000FF00FF00FFFF0000FFFFFF0000000000000000000000000000000000000000000000000000000000000000000000000000000000000000000000000000000000000000000000000000000000000000000000000000000000000000
310
00000000000000000000000000000000000000000000000000000000000000000000000000000000000000000000000000000000000000000000000000000000000000000000000000000000000000000000000000000000000000000000000000000000000000000000000000000000000000000000000000000000000000
310
000000000000000000000000000000000000000000000000FEFE0000000000000000000000000000000000000000000000000000000000FE00FE00000000000000000000000000FEFE00000000000000000000000000FE0000FE0000000000000000FEFEFEFEFEFE00FEFEFE000000000000000000FE000000FE0000000000
310
000000FE00000000FE000000FE0000000000000000FE00000000FEFEFEFEFEFEFEFE00FE00000000FE000000FE00000000000000FE0000000000FE00000000000000FEFE00000000FE000000FEFEFEFEFEFE0000FE0000000000FE00000000000000FEFE00000000FE000000FEFE000000FE0000FE0000000000FE00000000
310
000000FEFE00000000FE000000FEFE000000FE0000FE0000000000FE00000000000000FEFE00000000FE000000FEFE000000FE0000FE0000000000FE00000000000000FEFE00000000FE000000FEFE000000FE0000FE0000000000FE00000000000000FEFE00000000FE000000FEFE000000FE0000FE0000000000FE000000
310
00000000FEFE00000000FE000000FEFE000000FE0000FE0000000000FE00000000000000FEFE00000000FE000000FEFEFEFEFEFE000000FE00000000FEFEFEFEFEFEFEFE00FE00000000FE000000FE000000000000000000FE000000FE0000000000000000FE00000000FE000000FE00000000000000000000FE0000FE0000
310
000000000000FEFEFEFEFEFE0000FEFE0000000000000000000000FE00FE00000000000000000000000000FEFEFE0000000000000000000000000000FE000000000000000000000000000000000000000000000000000000000000000000000000000000000000000000000000000000000000000000000000000000000000
310
00000000000000000000000000000000000000000000000000000000000000000000000000000000000000000000000000000000000000000000000000000000000000000000000000000000000000000000000000000000000000000000000000000000000000000000000000000000000000000000000000000000000000
310
0000000000000000000000000000000000000000000000000000000000000000000000000000000000000000000000000000000000000000
102
{BLKREFS
331
3E904
331
3E7FC
102
}
  0
BLOCK_RECORD
  5
69AA
102
{ACAD_XDICTIONARY
360
6A72
102
}
330
1
100
AcDbSymbolTableRecord
100
AcDbBlockTableRecord
  2
hge-frm-bolt
340
0
310
2800000020000000200000000100080000000000000400000000000000000000000000000000000000000000000080000080000000808000800000008000800080800000C0C0C000C0DCC000F0CAA6000020400000206000002080000020A0000020C0000020E00000400000004020000040400000406000004080000040A0
310
000040C0000040E00000600000006020000060400000606000006080000060A0000060C0000060E00000800000008020000080400000806000008080000080A0000080C0000080E00000A0000000A0200000A0400000A0600000A0800000A0A00000A0C00000A0E00000C0000000C0200000C0400000C0600000C0800000C0
310
A00000C0C00000C0E00000E0000000E0200000E0400000E0600000E0800000E0A00000E0C00000E0E00040000000400020004000400040006000400080004000A0004000C0004000E00040200000402020004020400040206000402080004020A0004020C0004020E000404000004040200040404000404060004040800040
310
40A0004040C0004040E00040600000406020004060400040606000406080004060A0004060C0004060E00040800000408020004080400040806000408080004080A0004080C0004080E00040A0000040A0200040A0400040A0600040A0800040A0A00040A0C00040A0E00040C0000040C0200040C0400040C0600040C08000
310
40C0A00040C0C00040C0E00040E0000040E0200040E0400040E0600040E0800040E0A00040E0C00040E0E00080000000800020008000400080006000800080008000A0008000C0008000E00080200000802020008020400080206000802080008020A0008020C0008020E00080400000804020008040400080406000804080
310
008040A0008040C0008040E00080600000806020008060400080606000806080008060A0008060C0008060E00080800000808020008080400080806000808080008080A0008080C0008080E00080A0000080A0200080A0400080A0600080A0800080A0A00080A0C00080A0E00080C0000080C0200080C0400080C0600080C0
310
800080C0A00080C0C00080C0E00080E0000080E0200080E0400080E0600080E0800080E0A00080E0C00080E0E000C0000000C0002000C0004000C0006000C0008000C000A000C000C000C000E000C0200000C0202000C0204000C0206000C0208000C020A000C020C000C020E000C0400000C0402000C0404000C0406000C0
310
408000C040A000C040C000C040E000C0600000C0602000C0604000C0606000C0608000C060A000C060C000C060E000C0800000C0802000C0804000C0806000C0808000C080A000C080C000C080E000C0A00000C0A02000C0A04000C0A06000C0A08000C0A0A000C0A0C000C0A0E000C0C00000C0C02000C0C04000C0C06000
310
C0C08000C0C0A000F0FBFF00A4A0A000808080000000FF0000FF000000FFFF00FF000000FF00FF00FFFF0000FFFFFF0000000000000000000000000000000000000000000000000000000000000000000000000000000000000000000000000000000000000000000000000000000000000000000000000000000000000000
310
00000000000000000000000000000000000000000000000000000000000000000000000000000000000000000000000000000000000000000000000000000000000000000000000000000000000000000000000000000000000000000000000000000000000000000000000000000000000000000000000000000000000000
310
0000000000000000000000000000000000000000000000000000000000000000000000000000000000000000000000000000000000000000FEFEFE00000000000000000000000000000000000000000000000000FEFEFEFEFE00FE0000000000000000000000FEFEFEFEFE0000000000000000FE00000000FE00FE00000000
310
000000000000FE0000000000FE00000000000000FEFE000000FE00FE00000000000000000000FEFE00000000FE00000000000000FEFEFEFEFEFE00FEFEFEFEFEFEFEFEFEFEFEFEFEFEFEFEFEFEFEFEFEFE000000FEFE000000FE00FE00000000000000000000FEFE000000FEFE000000FEFE0000FEFE000000FE00FE000000
310
00000000000000FEFE000000FEFE000000FEFE0000FEFE000000FE00FE00000000000000000000FEFE000000FEFE000000FEFE0000FEFE000000FE00FE00000000000000000000FEFE000000FEFE000000FEFE0000FEFE000000FE00FE00000000000000000000FEFE000000FEFE000000FEFE0000FEFE000000FE00FE0000
310
0000000000000000FEFE000000FEFE000000FEFE0000FEFEFEFEFEFE00FEFEFEFEFEFEFEFEFEFEFEFEFEFEFEFEFEFEFEFEFEFE000000FEFE000000FE00FE00000000000000000000FEFE00000000FE00000000000000FE00000000FE00FE00000000000000000000FE0000000000FE0000000000000000FEFEFEFEFE00FE00
310
00000000000000000000FEFEFEFEFE00000000000000000000000000FEFEFE000000000000000000000000000000000000000000000000000000000000000000000000000000000000000000000000000000000000000000000000000000000000000000000000000000000000000000000000000000000000000000000000
310
00000000000000000000000000000000000000000000000000000000000000000000000000000000000000000000000000000000000000000000000000000000000000000000000000000000000000000000000000000000000000000000000000000000000000000000000000000000000000000000000000000000000000
310
0000000000000000000000000000000000000000000000000000000000000000000000000000000000000000000000000000000000000000
102
{BLKREFS
331
3E903
331
3E7FD
102
}
  0
BLOCK_RECORD
  5
7DFC
330
1
100
AcDbSymbolTableRecord
100
AcDbBlockTableRecord
  2
_Dot
340
0
  0
BLOCK_RECORD
  5
3429A
102
{ACAD_XDICTIONARY
360
3429B
102
}
330
1
100
AcDbSymbolTableRecord
100
AcDbBlockTableRecord
  2
gskt-3
340
0
310
2800000020000000200000000100080000000000000400000000000000000000000000000000000000000000000080000080000000808000800000008000800080800000C0C0C000C0DCC000F0CAA6000020400000206000002080000020A0000020C0000020E00000400000004020000040400000406000004080000040A0
310
000040C0000040E00000600000006020000060400000606000006080000060A0000060C0000060E00000800000008020000080400000806000008080000080A0000080C0000080E00000A0000000A0200000A0400000A0600000A0800000A0A00000A0C00000A0E00000C0000000C0200000C0400000C0600000C0800000C0
310
A00000C0C00000C0E00000E0000000E0200000E0400000E0600000E0800000E0A00000E0C00000E0E00040000000400020004000400040006000400080004000A0004000C0004000E00040200000402020004020400040206000402080004020A0004020C0004020E000404000004040200040404000404060004040800040
310
40A0004040C0004040E00040600000406020004060400040606000406080004060A0004060C0004060E00040800000408020004080400040806000408080004080A0004080C0004080E00040A0000040A0200040A0400040A0600040A0800040A0A00040A0C00040A0E00040C0000040C0200040C0400040C0600040C08000
310
40C0A00040C0C00040C0E00040E0000040E0200040E0400040E0600040E0800040E0A00040E0C00040E0E00080000000800020008000400080006000800080008000A0008000C0008000E00080200000802020008020400080206000802080008020A0008020C0008020E00080400000804020008040400080406000804080
310
008040A0008040C0008040E00080600000806020008060400080606000806080008060A0008060C0008060E00080800000808020008080400080806000808080008080A0008080C0008080E00080A0000080A0200080A0400080A0600080A0800080A0A00080A0C00080A0E00080C0000080C0200080C0400080C0600080C0
310
800080C0A00080C0C00080C0E00080E0000080E0200080E0400080E0600080E0800080E0A00080E0C00080E0E000C0000000C0002000C0004000C0006000C0008000C000A000C000C000C000E000C0200000C0202000C0204000C0206000C0208000C020A000C020C000C020E000C0400000C0402000C0404000C0406000C0
310
408000C040A000C040C000C040E000C0600000C0602000C0604000C0606000C0608000C060A000C060C000C060E000C0800000C0802000C0804000C0806000C0808000C080A000C080C000C080E000C0A00000C0A02000C0A04000C0A06000C0A08000C0A0A000C0A0C000C0A0E000C0C00000C0C02000C0C04000C0C06000
310
C0C08000C0C0A000F0FBFF00A4A0A000808080000000FF0000FF000000FFFF00FF000000FF00FF00FFFF0000FFFFFF0000000000000000000000000000000000000000000000000000000000000000000000000000000000000000000000000000000000000000000000000000000000000000000000000000000000000000
310
00000000000000000000000000000000000000000000000000000000000000000000000000000000000000000000000000000000000000000000000000000000000000000000000000000000000000000000000000000000000000000000000000000000000000000000000000000000000000000000000000000000000000
310
00000000000000000000000000000000000000000000000000000000000000000000000000000000000000000000000000000000000000000000000000000000000000000000000000000000000000000000000000000000000000FEFEFEFEFEFEFEFEFEFEFEFEFEFE000000000000000000000000000000FEFEFE00000000
310
00000000000000000000FEFEFE00000000000000000000FEFE0000000000000000000000000000000000000000FEFE000000000000FEFE0000000000000000000000FEFE0000000000000000000000FEFE000000FE0000000000000000000000FEFE0000FEFE0000000000000000000000FE000000FE0000000000000000FE
310
FE000000000000FEFE0000000000000000FE00000000FE000000000000FEFE00000000000000000000FEFE000000000000FE00000000FE00000000FEFE0000000000000000000000000000FEFE000000FE0000000000FE0000FEFE000000000000000000000000000000000000FEFE00FE000000000000FE0000FEFE000000
310
00000000000000000000000000FEFE0000FE00000000000000FE000000FEFE000000000000000000000000FEFE000000FE000000000000000000FE00000000FEFEFEFEFEFEFEFEFEFEFEFE0000000000FE00000000000000000000FEFEFE0000000000000000000000000000FEFEFEFE00000000000000000000000000FEFE
310
FEFEFEFEFEFEFEFEFEFEFEFEFEFE0000000000000000000000000000000000000000000000000000000000000000000000000000000000000000000000000000000000000000000000000000000000000000000000000000000000000000000000000000000000000000000000000000000000000000000000000000000000
310
00000000000000000000000000000000000000000000000000000000000000000000000000000000000000000000000000000000000000000000000000000000000000000000000000000000000000000000000000000000000000000000000000000000000000000000000000000000000000000000000000000000000000
310
0000000000000000000000000000000000000000000000000000000000000000000000000000000000000000000000000000000000000000
102
{BLKREFS
331
3E908
331
3E907
102
}
1001
ACAD
1000
DesignCenter Data
1002
{
1070
     1
1070
     1
1002
}
  0
BLOCK_RECORD
  5
3D61C
330
1
100
AcDbSymbolTableRecord
100
AcDbBlockTableRecord
  2
SW_HATCH_1
340
0
  0
BLOCK_RECORD
  5
3E68B
330
1
100
AcDbSymbolTableRecord
100
AcDbBlockTableRecord
  2
SW_CENTERMARKSYMBOL_128
340
0
  0
ENDTAB
  0
ENDSEC
  0
SECTION
  2
BLOCKS
  0
BLOCK
  5
5A
330
18
100
AcDbEntity
  8
0
100
AcDbBlockBegin
  2
*MODEL_SPACE
 70
     0
 10
0.0
 20
0.0
 30
0.0
  3
*MODEL_SPACE
  1

  0
ENDBLK
  5
5B
330
18
100
AcDbEntity
  8
0
100
AcDbBlockEnd
  0
BLOCK
  5
58
330
15
100
AcDbEntity
 67
     1
  8
0
100
AcDbBlockBegin
  2
*PAPER_SPACE
 70
     0
 10
0.0
 20
0.0
 30
0.0
  3
*PAPER_SPACE
  1

  0
ENDBLK
  5
59
330
15
100
AcDbEntity
 67
     1
  8
0
100
AcDbBlockEnd
  0
BLOCK
  5
5D
330
1C
100
AcDbEntity
  8
0
100
AcDbBlockBegin
  2
HINGE
 70
     0
 10
-1.6875
 20
-0.125
 30
0.0
  3
HINGE
  1

  0
LINE
  5
5E
330
1C
100
AcDbEntity
  8
H
100
AcDbLine
 10
-0.125
 20
0.5
 30
0.0
 11
-0.25
 21
0.5
 31
0.0
  0
LINE
  5
5F
330
1C
100
AcDbEntity
  8
H
100
AcDbLine
 10
-0.125
 20
1.0
 30
0.0
 11
-0.125
 21
0.5
 31
0.0
  0
LINE
  5
60
330
1C
100
AcDbEntity
  8
H
100
AcDbLine
 10
-0.25
 20
1.0
 30
0.0
 11
-0.125
 21
1.0
 31
0.0
  0
LINE
  5
61
330
1C
100
AcDbEntity
  8
H
100
AcDbLine
 10
-3.125
 20
0.125
 30
0.0
 11
-3.125
 21
1.46875
 31
0.0
  0
LINE
  5
62
330
1C
100
AcDbEntity
  8
H
100
AcDbLine
 10
-2.96875
 20
1.625
 30
0.0
 11
-0.40625
 21
1.625
 31
0.0
  0
LINE
  5
63
330
1C
100
AcDbEntity
  8
H
100
AcDbLine
 10
-0.25
 20
1.46875
 30
0.0
 11
-0.25
 21
0.125
 31
0.0
  0
LINE
  5
64
330
1C
100
AcDbEntity
  8
H
100
AcDbLine
 10
-0.25
 20
0.125
 30
0.0
 11
-0.34375
 21
0.125
 31
0.0
  0
LINE
  5
65
330
1C
100
AcDbEntity
  8
H
100
AcDbLine
 10
-0.34375
 20
0.125
 30
0.0
 11
-0.34375
 21
1.46875
 31
0.0
  0
LINE
  5
66
330
1C
100
AcDbEntity
  8
H
100
AcDbLine
 10
-0.40625
 20
1.53125
 30
0.0
 11
-2.96875
 21
1.53125
 31
0.0
  0
LINE
  5
67
330
1C
100
AcDbEntity
  8
H
100
AcDbLine
 10
-3.03125
 20
1.46875
 30
0.0
 11
-3.03125
 21
0.125
 31
0.0
  0
LINE
  5
68
330
1C
100
AcDbEntity
  8
H
100
AcDbLine
 10
-3.03125
 20
0.125
 30
0.0
 11
-3.125
 21
0.125
 31
0.0
  0
LINE
  5
69
330
1C
100
AcDbEntity
  8
H
100
AcDbLine
 10
-2.96875
 20
1.3125
 30
0.0
 11
-2.96875
 21
0.03125
 31
0.0
  0
LINE
  5
6A
330
1C
100
AcDbEntity
  8
H
100
AcDbLine
 10
-2.8125
 20
-0.125
 30
0.0
 11
-0.5625
 21
-0.125
 31
0.0
  0
LINE
  5
6B
330
1C
100
AcDbEntity
  8
H
100
AcDbLine
 10
-0.40625
 20
0.03125
 30
0.0
 11
-0.40625
 21
1.3125
 31
0.0
  0
LINE
  5
6C
330
1C
100
AcDbEntity
  8
H
100
AcDbLine
 10
-0.40625
 20
1.3125
 30
0.0
 11
-0.5
 21
1.3125
 31
0.0
  0
LINE
  5
6D
330
1C
100
AcDbEntity
  8
H
100
AcDbLine
 10
-0.5
 20
1.3125
 30
0.0
 11
-0.5
 21
0.03125
 31
0.0
  0
LINE
  5
6E
330
1C
100
AcDbEntity
  8
H
100
AcDbLine
 10
-0.5625
 20
-0.03125
 30
0.0
 11
-2.8125
 21
-0.03125
 31
0.0
  0
LINE
  5
6F
330
1C
100
AcDbEntity
  8
H
100
AcDbLine
 10
-2.875
 20
0.03125
 30
0.0
 11
-2.875
 21
1.3125
 31
0.0
  0
LINE
  5
70
330
1C
100
AcDbEntity
  8
H
100
AcDbLine
 10
-2.875
 20
1.3125
 30
0.0
 11
-2.96875
 21
1.3125
 31
0.0
  0
ARC
  5
71
330
1C
100
AcDbEntity
  8
H
100
AcDbCircle
 10
-2.8125
 20
0.03125
 30
0.0
 40
0.0625
100
AcDbArc
 50
180.0
 51
269.9999999999999
  0
ARC
  5
72
330
1C
100
AcDbEntity
  8
H
100
AcDbCircle
 10
-0.5625
 20
0.03125
 30
0.0
 40
0.0625
100
AcDbArc
 50
270.0
 51
0.0
  0
ARC
  5
73
330
1C
100
AcDbEntity
  8
H
100
AcDbCircle
 10
-0.40625
 20
1.46875
 30
0.0
 40
0.0625
100
AcDbArc
 50
0.0
 51
90.0
  0
ARC
  5
74
330
1C
100
AcDbEntity
  8
H
100
AcDbCircle
 10
-2.96875
 20
1.46875
 30
0.0
 40
0.0625
100
AcDbArc
 50
90.0
 51
179.9999999999999
  0
ARC
  5
75
330
1C
100
AcDbEntity
  8
H
100
AcDbCircle
 10
-2.8125
 20
0.03125
 30
0.0
 40
0.15625
100
AcDbArc
 50
180.0
 51
269.9999999999999
  0
ARC
  5
76
330
1C
100
AcDbEntity
  8
H
100
AcDbCircle
 10
-2.96875
 20
1.46875
 30
0.0
 40
0.15625
100
AcDbArc
 50
90.0
 51
179.9999999999999
  0
ARC
  5
77
330
1C
100
AcDbEntity
  8
H
100
AcDbCircle
 10
-0.40625
 20
1.46875
 30
0.0
 40
0.15625
100
AcDbArc
 50
0.0
 51
90.0
  0
ARC
  5
78
330
1C
100
AcDbEntity
  8
H
100
AcDbCircle
 10
-0.5625
 20
0.03125
 30
0.0
 40
0.15625
100
AcDbArc
 50
270.0
 51
0.0
  0
LINE
  5
79
330
1C
100
AcDbEntity
  8
H
100
AcDbLine
 10
-3.125
 20
1.0
 30
0.0
 11
-3.25
 21
1.0
 31
0.0
  0
LINE
  5
7A
330
1C
100
AcDbEntity
  8
H
100
AcDbLine
 10
-3.25
 20
1.0
 30
0.0
 11
-3.25
 21
0.5
 31
0.0
  0
LINE
  5
7B
330
1C
100
AcDbEntity
  8
H
100
AcDbLine
 10
-3.25
 20
0.5
 30
0.0
 11
-3.125
 21
0.5
 31
0.0
  0
LINE
  5
7C
330
1C
100
AcDbEntity
  8
H
100
AcDbLine
 10
-2.96875
 20
0.9375
 30
0.0
 11
-3.03125
 21
0.9375
 31
0.0
  0
LINE
  5
7D
330
1C
100
AcDbEntity
  8
H
100
AcDbLine
 10
-2.96875
 20
0.5625
 30
0.0
 11
-3.03125
 21
0.5625
 31
0.0
  0
LINE
  5
7E
330
1C
100
AcDbEntity
  8
H
100
AcDbLine
 10
-0.34375
 20
0.9375
 30
0.0
 11
-0.40625
 21
0.9375
 31
0.0
  0
LINE
  5
7F
330
1C
100
AcDbEntity
  8
H
100
AcDbLine
 10
-0.5
 20
0.9375
 30
0.0
 11
-2.875
 21
0.9375
 31
0.0
  0
LINE
  5
80
330
1C
100
AcDbEntity
  8
H
100
AcDbLine
 10
-0.5
 20
0.5625
 30
0.0
 11
-2.875
 21
0.5625
 31
0.0
  0
LINE
  5
81
330
1C
100
AcDbEntity
  8
H
100
AcDbLine
 10
-0.34375
 20
0.5625
 30
0.0
 11
-0.40625
 21
0.5625
 31
0.0
  0
ENDBLK
  5
82
330
1C
100
AcDbEntity
  8
0
100
AcDbBlockEnd
  0
BLOCK
  5
600F
330
600E
100
AcDbEntity
  8
0
100
AcDbBlockBegin
  2
gskt-2
 70
     0
 10
0.0
 20
0.0
 30
0.0
  3
gskt-2
  1

  0
LWPOLYLINE
  5
6010
330
600E
100
AcDbEntity
  8
0
  6
Continuous
 62
     4
370
    15
100
AcDbPolyline
 90
        8
 70
     0
 43
0.0
 10
0.4375008265407132
 20
0.5443750148017444
 10
0.4375003914258003
 20
0.0468751560409686
 10
0.3250002992929524
 20
0.0468747001756924
 10
0.3250000096288659
 20
-0.0000000000000142
 10
-0.3250000096288659
 20
0.0
 10
-0.3250001667218783
 20
0.0468750750494849
 10
-0.4374995044789216
 20
0.0468755182139233
 10
-0.4374990678213351
 20
0.5443753788132142
  0
LINE
  5
6011
330
600E
100
AcDbEntity
  8
0
  6
Continuous
 62
     4
370
    15
100
AcDbLine
 10
0.3125004456894658
 20
0.2968752318121659
 30
0.0
 11
0.3125003265134012
 21
0.5443748433518181
 31
0.0
  0
ARC
  5
6012
330
600E
100
AcDbEntity
  8
0
  6
Continuous
 62
     4
370
    15
100
AcDbCircle
 10
0.0000004670746989
 20
0.5443750900405746
 30
0.0
 40
0.3125000000000064
100
AcDbArc
 50
359.9999798716896
 51
179.9999798716896
  0
LINE
  5
6013
330
600E
100
AcDbEntity
  8
0
  6
Continuous
 62
     4
370
    15
100
AcDbLine
 10
-0.31249977076547
 20
0.5443750276504176
 30
0.0
 11
-0.3124996515894054
 21
0.2968754161107796
 31
0.0
  0
ARC
  5
6014
330
600E
100
AcDbEntity
  8
0
  6
Continuous
 62
     4
370
    15
100
AcDbCircle
 10
-0.1874996197990128
 20
0.2968751564852852
 30
0.0
 40
0.1250000000000088
100
AcDbArc
 50
179.9999798716896
 51
269.9999798715887
  0
ARC
  5
6015
330
600E
100
AcDbEntity
  8
0
  6
Continuous
 62
     4
370
    15
100
AcDbCircle
 10
0.1875003797437955
 20
0.2968750250870613
 30
0.0
 40
0.1250000000000088
100
AcDbArc
 50
269.999979871688
 51
359.9999798716896
  0
ARC
  5
6016
330
600E
100
AcDbEntity
  8
0
  6
Continuous
 62
     4
370
    15
100
AcDbCircle
 10
0.0000004670746989
 20
0.5443750900405746
 30
0.0
 40
0.4374999999999697
100
AcDbArc
 50
164.9999531002895
 51
179.9999798716896
  0
ARC
  5
6017
330
600E
100
AcDbEntity
  8
0
  6
Continuous
 62
     4
370
    15
100
AcDbCircle
 10
-0.5652785200946085
 20
0.6958416337111118
 30
0.0
 40
0.1477200000000096
100
AcDbArc
 50
344.9999531002895
 51
28.56669825198944
  0
ARC
  5
6018
330
600E
100
AcDbEntity
  8
0
  6
Continuous
 62
     4
370
    15
100
AcDbCircle
 10
-0.4093724692434933
 20
0.7807268583654122
 30
0.0
 40
0.0297967539141024
100
AcDbArc
 50
91.43334974838964
 51
208.5666982519895
  0
ARC
  5
6019
330
600E
100
AcDbEntity
  8
0
  6
Continuous
 62
     4
370
    15
100
AcDbCircle
 10
-0.4138129033922553
 20
0.9581887496983654
 30
0.0
 40
0.1477206842332872
100
AcDbArc
 50
271.4333497483897
 51
358.5666099949889
  0
ARC
  5
601A
330
600E
100
AcDbEntity
  8
0
  6
Continuous
 62
     4
370
    15
100
AcDbCircle
 10
-0.2363510113966072
 20
0.9537481920290673
 30
0.0
 40
0.0297967539141168
100
AcDbArc
 50
61.43334974849056
 51
178.5666099948887
  0
ARC
  5
601B
330
600E
100
AcDbEntity
  8
0
  6
Continuous
 62
     4
370
    15
100
AcDbCircle
 10
-0.1514655920858274
 20
1.109654916317708
 30
0.0
 40
0.1477206842332752
100
AcDbArc
 50
241.4333497483886
 51
328.5666099949895
  0
ARC
  5
601C
330
600E
100
AcDbEntity
  8
0
  6
Continuous
 62
     4
370
    15
100
AcDbCircle
 10
0.000000632745099
 20
1.017078336836647
 30
0.0
 40
0.0297967539141
100
AcDbArc
 50
31.43334974848901
 51
148.5666099949895
  0
ARC
  5
601D
330
600E
100
AcDbEntity
  8
0
  6
Continuous
 62
     4
370
    15
100
AcDbCircle
 10
0.151466924427524
 20
1.109654810697335
 30
0.0
 40
0.1477206842332632
100
AcDbArc
 50
211.4333497483889
 51
298.5666099949892
  0
ARC
  5
601E
330
600E
100
AcDbEntity
  8
0
  6
Continuous
 62
     4
370
    15
100
AcDbCircle
 10
0.2363522335611208
 20
0.9537480279014118
 30
0.0
 40
0.0297967539141216
100
AcDbArc
 50
1.433349748489013
 51
118.5666099949891
  0
ARC
  5
601F
330
600E
100
AcDbEntity
  8
0
  6
Continuous
 62
     4
370
    15
100
AcDbCircle
 10
0.4138141267323761
 20
0.9581884605073867
 30
0.0
 40
0.1477206842332752
100
AcDbArc
 50
181.4333497483896
 51
268.5666099949906
  0
ARC
  5
6020
330
600E
100
AcDbEntity
  8
0
  6
Continuous
 62
     4
370
    15
100
AcDbCircle
 10
0.4093735690633196
 20
0.7807265685118097
 30
0.0
 40
0.0297967539141144
100
AcDbArc
 50
331.433261491389
 51
88.56660999499059
  0
ARC
  5
6021
330
600E
100
AcDbEntity
  8
0
  6
Continuous
 62
     4
370
    15
100
AcDbCircle
 10
0.5652795616836102
 20
0.6958412368037159
 30
0.0
 40
0.1477200000000072
100
AcDbArc
 50
151.4332614912899
 51
195.00000664299
  0
ARC
  5
6022
330
600E
100
AcDbEntity
  8
0
  6
Continuous
 62
     4
370
    15
100
AcDbCircle
 10
0.0000004670746989
 20
0.5443750900405746
 30
0.0
 40
0.4375000000000152
100
AcDbArc
 50
359.9999798716896
 51
15.00000664299002
  0
LINE
  5
6023
330
600E
100
AcDbEntity
  8
0
  6
Continuous
 62
     4
370
    15
100
AcDbLine
 10
0.1875001155696338
 20
0.1718745584964267
 30
0.0
 11
-0.1874994287075822
 21
0.1718754639501583
 31
0.0
  0
ENDBLK
  5
6024
330
600E
100
AcDbEntity
  8
0
100
AcDbBlockEnd
  0
BLOCK
  5
6026
330
6025
100
AcDbEntity
  8
0
100
AcDbBlockBegin
  2
flash-section-new
 70
     0
 10
0.0
 20
0.0
 30
0.0
  3
flash-section-new
  1

  0
LWPOLYLINE
  5
6027
330
6025
100
AcDbEntity
  8
0
370
    15
100
AcDbPolyline
 90
        4
 70
     1
 43
0.0
 10
-0.3901063789520407
 20
-8.74999999679909
 10
-5.390106385352382
 20
-8.74999999679909
 10
-5.390106385352268
 20
-3.749999999998692
 10
-0.3901063789520407
 20
-3.749999999999147
  0
LINE
  5
6028
330
6025
100
AcDbEntity
  8
H
370
    15
100
AcDbLine
 10
-0.7501063789521681
 20
-8.74999999679909
 30
0.0
 11
-0.7501063789521681
 21
-3.749999999998692
 31
0.0
  0
LWPOLYLINE
  5
6029
330
6025
100
AcDbEntity
  8
0
  6
Continuous
 62
     7
370
    15
100
AcDbPolyline
 90
       24
 70
   129
 43
0.0
 10
-11.0
 20
-14.007864176
 10
-11.0
 20
-18.0481069061891
 42
-0.1779653713258344
 10
-11.05951384276977
 20
-18.21001744909336
 10
-12.2893000672002
 20
-19.65684881599998
 10
-12.01500000000033
 20
-19.88999999999998
 10
-10.78521377600009
 20
-18.44316863040001
 42
0.1779653714087473
 10
-10.64000000000032
 20
-18.04810690559998
 10
-10.64000000000032
 20
-14.00786417416549
 42
-0.2239099575306091
 10
-10.54907443869797
 20
-13.81500328400636
 10
-5.611858371200014
 20
-9.742716393600005
 42
0.2239099577539324
 10
-5.390000000000327
 20
-9.272135820800031
 10
-5.390000000000327
 20
-0.25
 42
-0.4142135623730942
 10
-5.140000000000327
 20
0.0
 10
-0.25
 20
0.0
 42
-0.4142135623730951
 10
0.0
 20
-0.25
 10
0.0
 20
-1.139999999999986
 10
0.3599999999996726
 20
-1.139999999999986
 10
0.3599999999998999
 20
-0.25
 42
0.4142135623730951
 10
-0.25
 20
0.3600000000000136
 10
-5.140000000000327
 20
0.3600000000000136
 42
0.4142135623730942
 10
-5.750000000000227
 20
-0.25
 10
-5.75
 20
-9.272135819995241
 42
-0.2239099574293404
 10
-5.840925561227777
 20
-9.464996710093032
 10
-10.77814163200014
 20
-13.53728360640002
 42
0.2239099609726689
  0
LINE
  5
602A
330
6025
100
AcDbEntity
  8
0
100
AcDbLine
 10
-12.01500000000033
 20
-19.88999999999998
 30
0.0
 11
-11.74069993333396
 21
-20.1231511814828
 31
0.0
  0
LINE
  5
602B
330
6025
100
AcDbEntity
  8
0
  6
Continuous
 62
     7
370
    15
100
AcDbLine
 10
-11.74069993333396
 20
-20.1231511814828
 30
0.0
 11
-10.51091370933372
 21
-18.67631981188282
 31
0.0
  0
ARC
  5
602C
330
6025
100
AcDbEntity
  8
0
  6
Continuous
 62
     7
370
    15
100
AcDbCircle
 10
-11.24999999970919
 20
-18.04810690624156
 30
0.0
 40
0.9699999997088626
100
AcDbArc
 50
319.6359333358152
 51
352.8704419579104
  0
LINE
  5
602D
330
6025
100
AcDbEntity
  8
0
  6
Continuous
 62
     7
370
    15
100
AcDbLine
 10
-10.28749999957529
 20
-18.16849689410364
 30
0.0
 11
-10.28749999957529
 21
-14.51570053248474
 31
0.0
  0
ARC
  5
602E
330
6025
100
AcDbEntity
  8
0
  6
Continuous
 62
     7
370
    15
100
AcDbCircle
 10
-10.66251485380258
 20
-14.51570041248254
 30
0.0
 40
0.3750148544507469
100
AcDbArc
 50
359.9999817734997
 51
44.99888938690071
  0
LINE
  5
602F
330
6025
100
AcDbEntity
  8
0
  6
Continuous
 62
     7
370
    15
100
AcDbLine
 10
-10.64000000000032
 20
-14.00786417416549
 30
0.0
 11
-10.39733416744695
 21
-14.2505300067188
 31
0.0
  0
ENDBLK
  5
6030
330
6025
100
AcDbEntity
  8
0
100
AcDbBlockEnd
  0
BLOCK
  5
6817
330
6816
100
AcDbEntity
  8
0
100
AcDbBlockBegin
  2
advel
 70
     0
 10
0.0
 20
0.0
 30
0.0
  3
advel
  1

  0
LINE
  5
6819
330
6816
100
AcDbEntity
  8
1
  6
HIDDEN
 62
     4
 48
0.125
100
AcDbLine
 10
0.4857589392076989
 20
-0.2500182074933264
 30
0.0
 11
0.315250001600134
 21
-0.2500182074933264
 31
0.0
  0
LINE
  5
681A
330
6816
100
AcDbEntity
  8
1
  6
HIDDEN
 62
     4
 48
0.125
100
AcDbLine
 10
0.4857589392076989
 20
0.2499817925066736
 30
0.0
 11
0.4857589392076989
 21
-0.2500182074933264
 31
0.0
  0
LINE
  5
681B
330
6816
100
AcDbEntity
  8
1
  6
HIDDEN
 62
     4
 48
0.125
100
AcDbLine
 10
0.315250001600134
 20
0.2499817925066736
 30
0.0
 11
0.4857589392076989
 21
0.2499817925066736
 31
0.0
  0
LINE
  5
681C
330
6816
100
AcDbEntity
  8
1
  6
HIDDEN
 62
     4
 48
0.125
100
AcDbLine
 10
0.315250001600134
 20
-0.2500182074933264
 30
0.0
 11
0.315250001600134
 21
0.2499817925066736
 31
0.0
  0
LINE
  5
681D
330
6816
100
AcDbEntity
  8
1
  6
HIDDEN
 62
     4
 48
0.125
100
AcDbLine
 10
0.6437123078457603
 20
0.2509473187168396
 30
0.0
 11
0.499505280826611
 21
0.2629003075874152
 31
0.0
  0
LINE
  5
681E
330
6816
100
AcDbEntity
  8
1
  6
HIDDEN
 62
     4
 48
0.125
100
AcDbLine
 10
0.6437123078457603
 20
-0.2509837337034924
 30
0.0
 11
0.499505280826611
 21
-0.262936722574068
 31
0.0
  0
LINE
  5
681F
330
6816
100
AcDbEntity
  8
1
  6
HIDDEN
 62
     4
 48
0.125
100
AcDbLine
 10
0.4857589392076989
 20
0.2502462282127453
 30
0.0
 11
0.4857589392076989
 21
0.2499817925066736
 31
0.0
  0
LINE
  5
6820
330
6816
100
AcDbEntity
  8
1
  6
HIDDEN
 62
     4
 48
0.125
100
AcDbLine
 10
0.4857589392076989
 20
-0.2502826431993981
 30
0.0
 11
0.4857589392076989
 21
-0.2500182074933264
 31
0.0
  0
LINE
  5
6821
330
6816
100
AcDbEntity
  8
1
  6
HIDDEN
 62
     4
 48
0.125
100
AcDbLine
 10
0.6553609143812196
 20
0.2382932393421697
 30
0.0
 11
0.6553609143812196
 21
-0.2383296543288225
 31
0.0
  0
LINE
  5
6822
330
6816
100
AcDbEntity
  8
1
  6
HIDDEN
 62
     4
 48
0.125
100
AcDbLine
 10
0.274954376257881
 20
0.1375108382077883
 30
0.0
 11
0.275097844014283
 21
-0.1375152723189785
 31
0.0
  0
LINE
  5
6823
330
6816
100
AcDbEntity
  8
1
  6
HIDDEN
 62
     4
 48
0.125
100
AcDbLine
 10
0.6889282657310787
 20
0.1375108382077883
 30
0.0
 11
0.6890717334874808
 21
-0.1375152723189785
 31
0.0
  0
LINE
  5
6824
330
6816
100
AcDbEntity
  8
1
  6
HIDDEN
 62
     4
 48
0.125
100
AcDbLine
 10
0.8125425491367082
 20
-0.1253803775592814
 30
0.0
 11
0.8125425491367082
 21
-0.1352080142517025
 31
0.0
  0
LINE
  5
6825
330
6816
100
AcDbEntity
  8
1
  6
HIDDEN
 62
     4
 48
0.125
100
AcDbLine
 10
0.8125425491367082
 20
0.1245401531866719
 30
0.0
 11
0.8125425491367082
 21
0.1342697332012221
 31
0.0
  0
LINE
  5
6826
330
6816
100
AcDbEntity
  8
1
  6
HIDDEN
 62
     4
 48
0.125
100
AcDbLine
 10
0.8125425491367082
 20
0.1245401531866719
 30
0.0
 11
0.8125425491367082
 21
-0.1253803775592814
 31
0.0
  0
LINE
  5
6827
330
6816
100
AcDbEntity
  8
1
  6
Continuous
 62
     4
100
AcDbLine
 10
-0.0330802182295997
 20
-0.3100482965585911
 30
0.0
 11
-0.0348623602461657
 21
-0.3100767161939757
 31
0.0
  0
LINE
  5
6828
330
6816
100
AcDbEntity
  8
1
  6
Continuous
 62
     4
100
AcDbLine
 10
-0.0383584331978568
 20
0.3102087664917121
 30
0.0
 11
-0.0403637025706303
 21
0.3102458198289923
 31
0.0
  0
LINE
  5
6829
330
6816
100
AcDbEntity
  8
1
  6
Continuous
 62
     4
100
AcDbLine
 10
0.0
 20
-0.2790296285601812
 30
0.0
 11
0.0
 21
0.2790296285601812
 31
0.0
  0
LINE
  5
682A
330
6816
100
AcDbEntity
  8
1
  6
Continuous
 62
     4
100
AcDbLine
 10
-0.2179999999999609
 20
0.1249817925066736
 30
0.0
 11
-0.2179999999999609
 21
-0.1250182074933264
 31
0.0
  0
LINE
  5
682B
330
6816
100
AcDbEntity
  8
1
  6
HIDDEN
 62
     4
 48
0.125
100
AcDbLine
 10
0.0
 20
-0.1600182074933514
 30
0.0
 11
0.2124542968253991
 21
-0.1600182074933514
 31
0.0
  0
LINE
  5
682C
330
6816
100
AcDbEntity
  8
1
  6
HIDDEN
 62
     4
 48
0.125
100
AcDbLine
 10
0.0
 20
0.1599817925066986
 30
0.0
 11
0.2134250289763599
 21
0.1599817925066986
 31
0.0
  0
LINE
  5
682D
330
6816
100
AcDbEntity
  8
1
  6
HIDDEN
 62
     4
 48
0.125
100
AcDbLine
 10
0.2949282657310732
 20
-0.1176848506021884
 30
0.0
 11
0.315250001600134
 21
-0.1176848506021884
 31
0.0
  0
LINE
  5
682E
330
6816
100
AcDbEntity
  8
1
  6
HIDDEN
 62
     4
 48
0.125
100
AcDbLine
 10
0.315250001600134
 20
0.117510855251794
 30
0.0
 11
0.2949282657310732
 21
0.117510855251794
 31
0.0
  0
LINE
  5
682F
330
6816
100
AcDbEntity
  8
1
  6
HIDDEN
 62
     4
 48
0.125
100
AcDbLine
 10
0.275097844014283
 20
-0.1375152723189785
 30
0.0
 11
0.2949282657310732
 21
-0.1176848506021884
 31
0.0
  0
LINE
  5
6830
330
6816
100
AcDbEntity
  8
1
  6
HIDDEN
 62
     4
 48
0.125
100
AcDbLine
 10
0.274954376257881
 20
0.1375108382077883
 30
0.0
 11
0.2949282657310732
 21
0.117510855251794
 31
0.0
  0
LINE
  5
6831
330
6816
100
AcDbEntity
  8
1
  6
HIDDEN
 62
     4
 48
0.125
100
AcDbLine
 10
0.2949282657310732
 20
-0.1176848506021884
 30
0.0
 11
0.2949282657310732
 21
0.117510855251794
 31
0.0
  0
LINE
  5
6832
330
6816
100
AcDbEntity
  8
1
  6
HIDDEN
 62
     4
 48
0.125
100
AcDbLine
 10
0.6689021552043073
 20
-0.1176848506021884
 30
0.0
 11
0.6553609143812196
 21
-0.1176848506021884
 31
0.0
  0
LINE
  5
6833
330
6816
100
AcDbEntity
  8
1
  6
HIDDEN
 62
     4
 48
0.125
100
AcDbLine
 10
0.6689021552043073
 20
0.117510855251794
 30
0.0
 11
0.6553609143812196
 21
0.117510855251794
 31
0.0
  0
LINE
  5
6834
330
6816
100
AcDbEntity
  8
1
  6
HIDDEN
 62
     4
 48
0.125
100
AcDbLine
 10
0.6689021552043073
 20
0.117510855251794
 30
0.0
 11
0.6689021552043073
 21
-0.1176848506021884
 31
0.0
  0
LINE
  5
6835
330
6816
100
AcDbEntity
  8
1
  6
HIDDEN
 62
     4
 48
0.125
100
AcDbLine
 10
0.6889282657310787
 20
0.1375108382077883
 30
0.0
 11
0.6689021552043073
 21
0.117510855251794
 31
0.0
  0
LINE
  5
6836
330
6816
100
AcDbEntity
  8
1
  6
HIDDEN
 62
     4
 48
0.125
100
AcDbLine
 10
0.6890717334874808
 20
-0.1375152723189785
 30
0.0
 11
0.6689021552043073
 21
-0.1176848506021884
 31
0.0
  0
ARC
  5
6837
330
6816
100
AcDbEntity
  8
1
  6
HIDDEN
 62
     4
 48
0.125
100
AcDbCircle
 10
0.2429987733699477
 20
-0.1541688496498068
 30
0.0
 40
0.00880302666756
100
AcDbArc
 50
47.36853032825751
 51
130.4406183870851
  0
ARC
  5
6838
330
6816
100
AcDbEntity
  8
1
  6
HIDDEN
 62
     4
 48
0.125
100
AcDbCircle
 10
0.2436156679329429
 20
0.1547515535193611
 30
0.0
 40
0.00880302666756
100
AcDbArc
 50
228.4783612386091
 51
311.5504492974579
  0
ARC
  5
6839
330
6816
100
AcDbEntity
  8
1
  6
HIDDEN
 62
     4
 48
0.125
100
AcDbCircle
 10
0.7378173020285317
 20
-0.2282498586437782
 30
0.0
 40
0.10299949324111
100
AcDbArc
 50
64.59840100867658
 51
118.2461370522135
  0
ARC
  5
683A
330
6816
100
AcDbEntity
  8
1
  6
HIDDEN
 62
     4
 48
0.125
100
AcDbCircle
 10
0.7386223932357439
 20
0.226583049231408
 30
0.0
 40
0.10199688762449
100
AcDbArc
 50
240.8424886481826
 51
295.1686176762711
  0
ARC
  5
683B
330
6816
100
AcDbEntity
  8
1
  6
HIDDEN
 62
     4
 48
0.125
100
AcDbCircle
 10
0.7972712745683453
 20
-0.1352080142517025
 30
0.0
 40
0.01527127456834
100
AcDbArc
 50
180.0
 51
0.0
  0
ARC
  5
683C
330
6816
100
AcDbEntity
  8
1
  6
HIDDEN
 62
     4
 48
0.125
100
AcDbCircle
 10
0.7972712745683453
 20
0.1342697332012221
 30
0.0
 40
0.01527127456835
100
AcDbArc
 50
0.0
 51
180.0
  0
ARC
  5
683D
330
6816
100
AcDbEntity
  8
1
  6
Continuous
 62
     4
100
AcDbCircle
 10
-0.0368601705239371
 20
-0.1289061807507892
 30
0.0
 40
0.18118155027117
100
AcDbArc
 50
178.7703960008015
 51
270.6317884834387
  0
ARC
  5
683E
330
6816
100
AcDbEntity
  8
1
  6
Continuous
 62
     4
100
AcDbCircle
 10
-0.0368601705239371
 20
-0.1289061807507892
 30
0.0
 40
0.18118155027117
100
AcDbArc
 50
270.6317884834387
 51
271.1954364389024
  0
ARC
  5
683F
330
6816
100
AcDbEntity
  8
1
  6
Continuous
 62
     4
100
AcDbCircle
 10
-0.04260625610749
 20
0.1346027197880062
 30
0.0
 40
0.17565741555191
100
AcDbArc
 50
88.61431382459032
 51
89.26850601110068
  0
ARC
  5
6840
330
6816
100
AcDbEntity
  8
1
  6
Continuous
 62
     4
100
AcDbCircle
 10
-0.04260625610749
 20
0.1346027197880062
 30
0.0
 40
0.17565741555191
100
AcDbArc
 50
86.77409352573786
 51
88.61431382459032
  0
ARC
  5
6841
330
6816
100
AcDbEntity
  8
1
  6
Continuous
 62
     4
100
AcDbCircle
 10
-0.0368601705239371
 20
-0.1289061807507892
 30
0.0
 40
0.18118155027117
100
AcDbArc
 50
271.1954364389024
 51
271.5873051897487
  0
ARC
  5
6842
330
6816
100
AcDbEntity
  8
1
  6
Continuous
 62
     4
100
AcDbCircle
 10
-0.04260625610749
 20
0.1346027197880062
 30
0.0
 40
0.17565741555191
100
AcDbArc
 50
89.26850601110068
 51
183.1397166213805
  0
ARC
  5
6843
330
6816
100
AcDbEntity
  8
1
  6
Continuous
 62
     4
100
AcDbCircle
 10
-0.0310000000000059
 20
-0.2790296285601812
 30
0.0
 40
0.031
100
AcDbArc
 50
268.4446667576982
 51
0.0
  0
ARC
  5
6844
330
6816
100
AcDbEntity
  8
1
  6
Continuous
 62
     4
100
AcDbCircle
 10
-0.0310000000000059
 20
0.2790296285601812
 30
0.0
 40
0.031
100
AcDbArc
 50
0.0
 51
93.18339344053333
  0
ARC
  5
6845
330
6816
100
AcDbEntity
  8
1
  6
HIDDEN
 62
     4
 48
0.125
100
AcDbCircle
 10
0.2700035332179596
 20
-0.1632676406709947
 30
0.0
 40
0.02625140907129
100
AcDbArc
 50
78.8102671159228
 51
143.2531950449134
  0
ARC
  5
6846
330
6816
100
AcDbEntity
  8
1
  6
HIDDEN
 62
     4
 48
0.125
100
AcDbCircle
 10
0.2717711386070505
 20
0.1657372601455336
 30
0.0
 40
0.02840534980153
100
AcDbArc
 50
218.2193515976628
 51
276.434351516331
  0
ARC
  5
6847
330
6816
100
AcDbEntity
  8
1
  6
HIDDEN
 62
     4
 48
0.125
100
AcDbCircle
 10
0.4984564132848846
 20
0.2502462282127453
 30
0.0
 40
0.01269747407716
100
AcDbArc
 50
85.26171603260223
 51
180.0
  0
ARC
  5
6848
330
6816
100
AcDbEntity
  8
1
  6
HIDDEN
 62
     4
 48
0.125
100
AcDbCircle
 10
0.4984564132848846
 20
-0.2502826431993981
 30
0.0
 40
0.01269747407716
100
AcDbArc
 50
180.0
 51
274.7382839673978
  0
ARC
  5
6849
330
6816
100
AcDbEntity
  8
1
  6
HIDDEN
 62
     4
 48
0.125
100
AcDbCircle
 10
0.6426634403040339
 20
-0.2383296543288225
 30
0.0
 40
0.01269747407716
100
AcDbArc
 50
274.7382839674305
 51
0.0
  0
ARC
  5
684A
330
6816
100
AcDbEntity
  8
1
  6
HIDDEN
 62
     4
 48
0.125
100
AcDbCircle
 10
0.6426634403040339
 20
0.2382932393421697
 30
0.0
 40
0.01269747407716
100
AcDbArc
 50
0.0
 51
85.26171603256944
  0
ARC
  5
684B
330
6816
100
AcDbEntity
  8
1
  6
HIDDEN
 62
     4
 48
0.125
100
AcDbCircle
 10
0.2124542968253991
 20
-0.1290182074932886
 30
0.0
 40
0.031
100
AcDbArc
 50
270.0
 51
323.2531950449133
  0
ARC
  5
684C
330
6816
100
AcDbEntity
  8
1
  6
HIDDEN
 62
     4
 48
0.125
100
AcDbCircle
 10
0.2134250289763599
 20
0.1289817925066927
 30
0.0
 40
0.031
100
AcDbArc
 50
38.21935159767932
 51
89.99999999999998
  0
ENDBLK
  5
6818
330
6816
100
AcDbEntity
  8
0
100
AcDbBlockEnd
  0
BLOCK
  5
69AB
330
69AA
100
AcDbEntity
  8
0
100
AcDbBlockBegin
  2
hge-frm-bolt
 70
     0
 10
0.0
 20
0.0
 30
0.0
  3
hge-frm-bolt
  1

  0
LINE
  5
69AD
330
69AA
100
AcDbEntity
  8
1
  6
HIDDEN
 62
     4
 48
0.125
100
AcDbLine
 10
0.4437530925470128
 20
-0.1559999999999899
 30
0.0
 11
0.0000000000000568
 21
-0.1559999999999901
 31
0.0
  0
LINE
  5
69AE
330
69AA
100
AcDbEntity
  8
1
  6
HIDDEN
 62
     4
 48
0.125
100
AcDbLine
 10
0.4442289074528958
 20
0.156000000000011
 30
0.0
 11
0.0
 21
0.1560000000000019
 31
0.0
  0
LINE
  5
69AF
330
69AA
100
AcDbEntity
  8
1
  6
HIDDEN
 62
     4
 48
0.125
100
AcDbLine
 10
-0.2962864710862618
 20
-0.2165063509461098
 30
0.0
 11
-0.2963455595222513
 21
0.2165063509461
 31
0.0
  0
LINE
  5
69B0
330
69AA
100
AcDbEntity
  8
1
  6
HIDDEN
 62
     4
 48
0.125
100
AcDbLine
 10
-0.2734290863085675
 20
0.2886751345947998
 30
0.0
 11
-0.1087499999999864
 21
0.2886751345947998
 31
0.0
  0
LINE
  5
69B1
330
69AA
100
AcDbEntity
  8
1
  6
HIDDEN
 62
     4
 48
0.125
100
AcDbLine
 10
-0.2734290863085675
 20
0.2886751345947998
 30
0.0
 11
-0.2740168865744863
 21
0.2886751345947998
 31
0.0
  0
LINE
  5
69B2
330
69AA
100
AcDbEntity
  8
1
  6
HIDDEN
 62
     4
 48
0.125
100
AcDbLine
 10
-0.2733567371350887
 20
-0.28867513459481
 30
0.0
 11
-0.2739720514723558
 21
-0.28867513459481
 31
0.0
  0
LINE
  5
69B3
330
69AA
100
AcDbEntity
  8
1
  6
HIDDEN
 62
     4
 48
0.125
100
AcDbLine
 10
-0.1087499999999864
 20
-0.25
 30
0.0
 11
-0.09375
 21
-0.25
 31
0.0
  0
LINE
  5
69B4
330
69AA
100
AcDbEntity
  8
1
  6
HIDDEN
 62
     4
 48
0.125
100
AcDbLine
 10
-0.1087499999999864
 20
-0.25
 30
0.0
 11
-0.1087499999999864
 21
0.0
 31
0.0
  0
LINE
  5
69B5
330
69AA
100
AcDbEntity
  8
1
  6
HIDDEN
 62
     4
 48
0.125
100
AcDbLine
 10
-0.1087499999999864
 20
0.0
 30
0.0
 11
-0.1087499999999864
 21
0.25
 31
0.0
  0
LINE
  5
69B6
330
69AA
100
AcDbEntity
  8
1
  6
HIDDEN
 62
     4
 48
0.125
100
AcDbLine
 10
-0.09375
 20
0.25
 30
0.0
 11
-0.1087499999999864
 21
0.25
 31
0.0
  0
LINE
  5
69B7
330
69AA
100
AcDbEntity
  8
1
  6
HIDDEN
 62
     4
 48
0.125
100
AcDbLine
 10
-0.1087499999999864
 20
-0.25
 30
0.0
 11
-0.1087499999999864
 21
-0.28867513459481
 31
0.0
  0
LINE
  5
69B8
330
69AA
100
AcDbEntity
  8
1
  6
HIDDEN
 62
     4
 48
0.125
100
AcDbLine
 10
-0.1087499999999864
 20
-0.28867513459481
 30
0.0
 11
-0.2733567371350887
 21
-0.28867513459481
 31
0.0
  0
LINE
  5
69B9
330
69AA
100
AcDbEntity
  8
1
  6
HIDDEN
 62
     4
 48
0.125
100
AcDbLine
 10
-0.1087499999999864
 20
0.25
 30
0.0
 11
-0.1087499999999864
 21
0.2886751345947998
 31
0.0
  0
LINE
  5
69BA
330
69AA
100
AcDbEntity
  8
1
  6
HIDDEN
 62
     4
 48
0.125
100
AcDbLine
 10
-0.1087499999999864
 20
0.1443375672973999
 30
0.0
 11
-0.2734290863085675
 21
0.1443375672973999
 31
0.0
  0
LINE
  5
69BB
330
69AA
100
AcDbEntity
  8
1
  6
HIDDEN
 62
     4
 48
0.125
100
AcDbLine
 10
-0.1087499999999864
 20
-0.1443375672973999
 30
0.0
 11
-0.2733567371350887
 21
-0.1443375672973999
 31
0.0
  0
LINE
  5
69BC
330
69AA
100
AcDbEntity
  8
1
  6
HIDDEN
 62
     4
 48
0.125
100
AcDbLine
 10
-0.09375
 20
0.25
 30
0.0
 11
-0.09375
 21
-0.25
 31
0.0
  0
LINE
  5
69BD
330
69AA
100
AcDbEntity
  8
1
  6
Continuous
 62
     4
100
AcDbLine
 10
0.8908780231346895
 20
0.1260000000000199
 30
0.0
 11
0.8608780231347168
 21
0.1560000000000197
 31
0.0
  0
LINE
  5
69BE
330
69AA
100
AcDbEntity
  8
1
  6
Continuous
 62
     4
100
AcDbLine
 10
0.8908780231346895
 20
0.1260000000000199
 30
0.0
 11
0.8908780231346895
 21
-0.1260000000000003
 31
0.0
  0
LINE
  5
69BF
330
69AA
100
AcDbEntity
  8
1
  6
Continuous
 62
     4
100
AcDbLine
 10
0.8608780231347168
 20
0.1560000000000197
 30
0.0
 11
0.8608780231347168
 21
-0.1559999999999899
 31
0.0
  0
LINE
  5
69C0
330
69AA
100
AcDbEntity
  8
1
  6
Continuous
 62
     4
100
AcDbLine
 10
0.8608780231347168
 20
-0.1559999999999899
 30
0.0
 11
0.6957269837063791
 21
-0.1559999999999901
 31
0.0
  0
LINE
  5
69C1
330
69AA
100
AcDbEntity
  8
1
  6
Continuous
 62
     4
100
AcDbLine
 10
0.8608780231347168
 20
-0.1559999999999899
 30
0.0
 11
0.8908780231346895
 21
-0.1260000000000003
 31
0.0
  0
LINE
  5
69C2
330
69AA
100
AcDbEntity
  8
1
  6
Continuous
 62
     4
100
AcDbLine
 10
0.8608780231347168
 20
0.1560000000000197
 30
0.0
 11
0.6952511688004961
 21
0.1560000000000163
 31
0.0
  0
ARC
  5
69C3
330
69AA
100
AcDbEntity
  8
1
  6
HIDDEN
 62
     4
 48
0.125
100
AcDbCircle
 10
-0.1712499999999864
 20
-0.2165063509461
 30
0.0
 40
0.12503647108627
100
AcDbArc
 50
144.7474267928478
 51
180.0000000000018
  0
ARC
  5
69C4
330
69AA
100
AcDbEntity
  8
1
  6
HIDDEN
 62
     4
 48
0.125
100
AcDbCircle
 10
-0.1712499999999864
 20
0.2165063509461
 30
0.0
 40
0.12509555952225
100
AcDbArc
 50
144.7665529182186
 51
180.0
  0
ARC
  5
69C5
330
69AA
100
AcDbEntity
  8
1
  6
HIDDEN
 62
     4
 48
0.125
100
AcDbCircle
 10
-0.1712499999999864
 20
-0.2165063509461
 30
0.0
 40
0.12503647108627
100
AcDbArc
 50
180.0000000000018
 51
215.252573207152
  0
ARC
  5
69C6
330
69AA
100
AcDbEntity
  8
1
  6
HIDDEN
 62
     4
 48
0.125
100
AcDbCircle
 10
0.1709088276377315
 20
0.0001113530739798
 30
0.0
 40
0.46715884090891
100
AcDbArc
 50
162.0172547360898
 51
198.0114647600339
  0
ARC
  5
69C7
330
69AA
100
AcDbEntity
  8
1
  6
HIDDEN
 62
     4
 48
0.125
100
AcDbCircle
 10
-0.1712499999999864
 20
0.2165063509461
 30
0.0
 40
0.12509555952226
100
AcDbArc
 50
180.0
 51
215.2334470817864
  0
LINE
  5
69C8
330
69AA
100
AcDbEntity
  8
1
  6
HIDDEN
 62
     4
 48
0.125
100
AcDbLine
 10
0.0
 20
0.3124993410910752
 30
0.0
 11
0.0
 21
-0.312499341091075
 31
0.0
  0
LINE
  5
69C9
330
69AA
100
AcDbEntity
  8
1
  6
HIDDEN
 62
     4
 48
0.125
100
AcDbLine
 10
-0.09375
 20
0.3124993410910752
 30
0.0
 11
-0.09375
 21
-0.312499341091075
 31
0.0
  0
LINE
  5
69CA
330
69AA
100
AcDbEntity
  8
1
  6
HIDDEN
 62
     4
 48
0.125
100
AcDbLine
 10
0.0
 20
0.3124993410910752
 30
0.0
 11
-0.09375
 21
0.3124993410910752
 31
0.0
  0
LINE
  5
69CB
330
69AA
100
AcDbEntity
  8
1
  6
HIDDEN
 62
     4
 48
0.125
100
AcDbLine
 10
-0.09375
 20
-0.312499341091075
 30
0.0
 11
0.0
 21
-0.312499341091075
 31
0.0
  0
LINE
  5
69CC
330
69AA
100
AcDbEntity
  8
1
  6
Continuous
 62
     4
100
AcDbLine
 10
0.4443180480868705
 20
0.21445104352188
 30
0.0
 11
0.4436639519131518
 21
-0.21445104352188
 31
0.0
  0
LINE
  5
69CD
330
69AA
100
AcDbEntity
  8
1
  6
Continuous
 62
     4
100
AcDbLine
 10
0.6951620281665214
 20
0.21445104352188
 30
0.0
 11
0.6958161243402401
 21
-0.21445104352188
 31
0.0
  0
LINE
  5
69CE
330
69AA
100
AcDbEntity
  8
1
  6
Continuous
 62
     4
100
AcDbLine
 10
0.6705133297460862
 20
-0.2887196435316703
 30
0.0
 11
0.4689667465073058
 21
-0.2887196435316703
 31
0.0
  0
LINE
  5
69CF
330
69AA
100
AcDbEntity
  8
1
  6
Continuous
 62
     4
100
AcDbLine
 10
0.4689667465073058
 20
-0.1405518273146298
 30
0.0
 11
0.6705133297460862
 21
-0.1405518273146298
 31
0.0
  0
LINE
  5
69D0
330
69AA
100
AcDbEntity
  8
1
  6
Continuous
 62
     4
100
AcDbLine
 10
0.6705133297460862
 20
0.1421023423957506
 30
0.0
 11
0.4689667465073058
 21
0.1421023423957506
 31
0.0
  0
LINE
  5
69D1
330
69AA
100
AcDbEntity
  8
1
  6
Continuous
 62
     4
100
AcDbLine
 10
0.6705133297460862
 20
0.2864399096931596
 30
0.0
 11
0.4689667465073058
 21
0.2864399096931596
 31
0.0
  0
ARC
  5
69D2
330
69AA
100
AcDbEntity
  8
1
  6
Continuous
 62
     4
100
AcDbCircle
 10
0.5647696013502923
 20
-0.2146357354231505
 30
0.0
 40
0.12110579026908
100
AcDbArc
 50
142.2853832981205
 51
179.912621266651
  0
ARC
  5
69D3
330
69AA
100
AcDbEntity
  8
1
  6
Continuous
 62
     4
100
AcDbCircle
 10
0.5622930258656425
 20
0.2142711260444601
 30
0.0
 40
0.11797511497008
100
AcDbArc
 50
142.2853832981257
 51
179.9126212666515
  0
ARC
  5
69D4
330
69AA
100
AcDbEntity
  8
1
  6
Continuous
 62
     4
100
AcDbCircle
 10
0.5747104749030996
 20
-0.2146357354231505
 30
0.0
 40
0.12110579026909
100
AcDbArc
 50
322.2853832981259
 51
0.0873787333488478
  0
ARC
  5
69D5
330
69AA
100
AcDbEntity
  8
1
  6
Continuous
 62
     4
100
AcDbCircle
 10
0.5771870503877495
 20
0.2142711260444601
 30
0.0
 40
0.11797511497008
100
AcDbArc
 50
322.2853832981258
 51
0.0873787333484661
  0
ARC
  5
69D6
330
69AA
100
AcDbEntity
  8
1
  6
Continuous
 62
     4
100
AcDbCircle
 10
0.5747104749030996
 20
-0.2146357354231505
 30
0.0
 40
0.12110579026907
100
AcDbArc
 50
0.0873787333488478
 51
37.7146167018742
  0
ARC
  5
69D7
330
69AA
100
AcDbEntity
  8
1
  6
Continuous
 62
     4
100
AcDbCircle
 10
0.2704230823822513
 20
0.0007752575405602
 30
0.0
 40
0.42431774762474
100
AcDbArc
 50
340.5448428971947
 51
19.45515710280529
  0
ARC
  5
69D8
330
69AA
100
AcDbEntity
  8
1
  6
Continuous
 62
     4
100
AcDbCircle
 10
0.5771870503877495
 20
0.2142711260444601
 30
0.0
 40
0.11797511497005
100
AcDbArc
 50
0.0873787333484661
 51
37.71461670187424
  0
ARC
  5
69D9
330
69AA
100
AcDbEntity
  8
1
  6
Continuous
 62
     4
100
AcDbCircle
 10
0.5647696013502923
 20
-0.2146357354231505
 30
0.0
 40
0.12110579026908
100
AcDbArc
 50
179.912621266651
 51
217.7146167018793
  0
ARC
  5
69DA
330
69AA
100
AcDbEntity
  8
1
  6
Continuous
 62
     4
100
AcDbCircle
 10
0.8690569938711405
 20
0.0007752575405602
 30
0.0
 40
0.42431774762472
100
AcDbArc
 50
160.544842897194
 51
199.4551571028058
  0
ARC
  5
69DB
330
69AA
100
AcDbEntity
  8
1
  6
Continuous
 62
     4
100
AcDbCircle
 10
0.5622930258656425
 20
0.2142711260444601
 30
0.0
 40
0.11797511497008
100
AcDbArc
 50
179.9126212666515
 51
217.7146167018742
  0
ENDBLK
  5
69AC
330
69AA
100
AcDbEntity
  8
0
100
AcDbBlockEnd
  0
BLOCK
  5
7DFD
330
7DFC
100
AcDbEntity
  8
0
100
AcDbBlockBegin
  2
_Dot
 70
     0
 10
0.0
 20
0.0
 30
0.0
  3
_Dot
  1

  0
LWPOLYLINE
  5
7DFE
330
7DFC
100
AcDbEntity
  8
0
  6
ByBlock
 62
     0
100
AcDbPolyline
 90
        2
 70
     1
 43
0.5
 10
-0.25
 20
0.0
 42
1.0
 10
0.25
 20
0.0
 42
1.0
  0
LINE
  5
7DFF
330
7DFC
100
AcDbEntity
  8
0
  6
ByBlock
 62
     0
370
    -2
100
AcDbLine
 10
-0.5
 20
0.0
 30
0.0
 11
-1.0
 21
0.0
 31
0.0
  0
ENDBLK
  5
7E00
330
7DFC
100
AcDbEntity
  8
0
100
AcDbBlockEnd
  0
BLOCK
  5
3429D
330
3429A
100
AcDbEntity
  8
0
100
AcDbBlockBegin
  2
gskt-3
 70
     0
 10
0.0
 20
0.0
 30
0.0
  3
gskt-3
  1

  0
ARC
  5
3429E
330
3429A
100
AcDbEntity
  8
0
  6
Continuous
 62
     4
370
    15
100
AcDbCircle
 10
-0.0073016160088883
 20
0.15570139119869
 30
0.0
 40
0.6083496396601497
100
AcDbArc
 50
241.8491220445746
 51
299.327195148405
  0
ARC
  5
3429F
330
3429A
100
AcDbEntity
  8
0
  6
Continuous
 62
     4
370
    15
100
AcDbCircle
 10
-0.1503378062015059
 20
-0.4256321922899531
 30
0.0
 40
0.4560035149678319
100
AcDbArc
 50
158.8305076387305
 51
173.5226242013258
  0
ARC
  5
342A0
330
3429A
100
AcDbEntity
  8
0
  6
Continuous
 62
     4
370
    15
100
AcDbCircle
 10
-0.6271345640609099
 20
-0.3901263931533805
 30
0.0
 40
0.028563163709858
100
AcDbArc
 50
292.1177283846781
 51
33.91303403042946
  0
ARC
  5
342A1
330
3429A
100
AcDbEntity
  8
0
  6
Continuous
 62
     4
370
    15
100
AcDbCircle
 10
-0.590210892889985
 20
-0.4308359135007294
 30
0.0
 40
0.0297967539141024
100
AcDbArc
 50
151.4333017480105
 51
268.5666502516103
  0
ARC
  5
342A2
330
3429A
100
AcDbEntity
  8
0
  6
Continuous
 62
     4
370
    15
100
AcDbCircle
 10
-0.5335490726864692
 20
-0.5300749695105225
 30
0.0
 40
0.0901061068666941
100
AcDbArc
 50
16.09968758268441
 51
129.5763734140835
  0
ARC
  5
342A3
330
3429A
100
AcDbEntity
  8
0
  6
Continuous
 62
     4
370
    15
100
AcDbCircle
 10
-0.4171894350430989
 20
-0.5043423383885255
 30
0.0
 40
0.0297967539141168
100
AcDbArc
 50
181.4333900051112
 51
298.5666502515094
  0
ARC
  5
342A4
330
3429A
100
AcDbEntity
  8
0
  6
Continuous
 62
     4
370
    15
100
AcDbCircle
 10
-0.3323040157323192
 20
-0.6602490626771811
 30
0.0
 40
0.1477206842332752
100
AcDbArc
 50
31.43339000501002
 51
118.5666502516114
  0
ARC
  5
342A5
330
3429A
100
AcDbEntity
  8
0
  6
Continuous
 62
     4
370
    15
100
AcDbCircle
 10
-0.0049259481186255
 20
0.1399674447093133
 30
0.0
 40
0.7506824831166621
100
AcDbArc
 50
254.4425943612695
 51
285.5574058161248
  0
LINE
  5
342A6
330
3429A
100
AcDbEntity
  8
0
  6
Continuous
 62
     4
370
    15
100
AcDbLine
 10
0.1875001155696338
 20
-0.1224844339764814
 30
0.0
 11
-0.1874994287075822
 21
-0.122485339430213
 31
0.0
  0
ARC
  5
342A7
330
3429A
100
AcDbEntity
  8
0
  6
Continuous
 62
     4
370
    15
100
AcDbCircle
 10
0.1334565464970794
 20
-0.445400116426626
 30
0.0
 40
0.465599727472625
100
AcDbArc
 50
8.79749914898459
 51
23.33721639509512
  0
ARC
  5
342A8
330
3429A
100
AcDbEntity
  8
0
  6
Continuous
 62
     4
370
    15
100
AcDbCircle
 10
0.6172826713766569
 20
-0.3901263931533805
 30
0.0
 40
0.0285631637098628
100
AcDbArc
 50
146.0869659695705
 51
247.8822716153219
  0
ARC
  5
342A9
330
3429A
100
AcDbEntity
  8
0
  6
Continuous
 62
     4
370
    15
100
AcDbCircle
 10
0.580359000205732
 20
-0.4308359135007294
 30
0.0
 40
0.0297967539141024
100
AcDbArc
 50
271.4333497483897
 51
28.56669825198944
  0
ARC
  5
342AA
330
3429A
100
AcDbEntity
  8
0
  6
Continuous
 62
     4
370
    15
100
AcDbCircle
 10
0.5236971800022161
 20
-0.5300749695105225
 30
0.0
 40
0.0901061068666943
100
AcDbArc
 50
50.42362658591651
 51
163.9003124173155
  0
ARC
  5
342AB
330
3429A
100
AcDbEntity
  8
0
  6
Continuous
 62
     4
370
    15
100
AcDbCircle
 10
0.4073375423588459
 20
-0.5043423383885255
 30
0.0
 40
0.0297967539141168
100
AcDbArc
 50
241.4333497484902
 51
358.5666099948887
  0
ARC
  5
342AC
330
3429A
100
AcDbEntity
  8
0
  6
Continuous
 62
     4
370
    15
100
AcDbCircle
 10
0.3224521230480661
 20
-0.6602490626771811
 30
0.0
 40
0.1477206842332752
100
AcDbArc
 50
61.43334974838854
 51
148.56660999499
  0
LINE
  5
342AD
330
3429A
100
AcDbEntity
  8
0
  6
Continuous
 62
     4
370
    15
100
AcDbLine
 10
0.4375003914258003
 20
-0.0468751560409686
 30
0.0
 11
0.3250002992929524
 21
-0.0468747001757066
 31
0.0
  0
LINE
  5
342AE
330
3429A
100
AcDbEntity
  8
0
  6
Continuous
 62
     4
370
    15
100
AcDbLine
 10
0.3250002992929524
 20
-0.0468747001757066
 30
0.0
 11
0.3250000096288659
 21
0.0000000000000142
 31
0.0
  0
LINE
  5
342AF
330
3429A
100
AcDbEntity
  8
0
  6
Continuous
 62
     4
370
    15
100
AcDbLine
 10
0.3250000096288659
 20
0.0000000000000142
 30
0.0
 11
-0.3250000096288659
 21
-0.0000000000000142
 31
0.0
  0
LINE
  5
342B0
330
3429A
100
AcDbEntity
  8
0
  6
Continuous
 62
     4
370
    15
100
AcDbLine
 10
-0.3250000096288659
 20
-0.0000000000000142
 30
0.0
 11
-0.3250001667218783
 21
-0.0468750750494991
 31
0.0
  0
LINE
  5
342B1
330
3429A
100
AcDbEntity
  8
0
  6
Continuous
 62
     4
370
    15
100
AcDbLine
 10
-0.3250001667218783
 20
-0.0468750750494991
 30
0.0
 11
-0.4374995044789216
 21
-0.0468755182139233
 31
0.0
  0
LINE
  5
342B2
330
3429A
100
AcDbEntity
  8
0
  6
Continuous
 62
     4
370
    15
100
AcDbLine
 10
-0.4374995044789216
 20
-0.0468755182139233
 30
0.0
 11
-0.5755680148208456
 21
-0.2609566467458393
 31
0.0
  0
LINE
  5
342B3
330
3429A
100
AcDbEntity
  8
0
  6
Continuous
 62
     4
370
    15
100
AcDbLine
 10
0.4375001913409733
 20
-0.0468755182139233
 30
0.0
 11
0.5609647513481662
 21
-0.2609566467458393
 31
0.0
  0
ARC
  5
342B4
330
3429A
100
AcDbEntity
  8
0
  6
Continuous
 62
     4
370
    15
100
AcDbCircle
 10
-0.2194201606971546
 20
-0.26047532128581
 30
0.0
 40
0.1416339232784932
100
AcDbArc
 50
76.97507510827875
 51
238.0747482195309
  0
ARC
  5
342B5
330
3429A
100
AcDbEntity
  8
0
  6
Continuous
 62
     4
370
    15
100
AcDbCircle
 10
0.2194208475592134
 20
-0.26047532128581
 30
0.0
 40
0.1416339232784932
100
AcDbArc
 50
301.9252517804691
 51
103.0249248917212
  0
ENDBLK
  5
342B6
330
3429A
100
AcDbEntity
  8
0
100
AcDbBlockEnd
  0
BLOCK
  5
3D61D
330
3D61C
100
AcDbEntity
  8
0
100
AcDbBlockBegin
  2
SW_HATCH_1
 70
     0
 10
0.0
 20
0.0
 30
0.0
  3
SW_HATCH_1
  1

  0
LINE
  5
3D61E
330
3D61C
100
AcDbEntity
  8
0
  6
Continuous
 62
     0
370
     0
100
AcDbLine
 10
0.0
 20
0.0
 30
0.0
 11
-0.0073749931
 21
-0.0073749748
 31
0.0
  0
LINE
  5
3D61F
330
3D61C
100
AcDbEntity
  8
0
  6
Continuous
 62
     0
370
     0
100
AcDbLine
 10
0.0307369633
 20
0.0307369449
 30
0.0
 11
0.0233619701
 21
0.0233619701
 31
0.0
  0
LINE
  5
3D620
330
3D61C
100
AcDbEntity
  8
0
  6
Continuous
 62
     0
370
     0
100
AcDbLine
 10
0.0
 20
-0.1767766845
 30
0.0
 11
-0.0073749931
 21
-0.1841517327
 31
0.0
  0
LINE
  5
3D621
330
3D61C
100
AcDbEntity
  8
0
  6
Continuous
 62
     0
370
     0
100
AcDbLine
 10
0.0
 20
-0.3535533690999999
 30
0.0
 11
-0.0073749931
 21
-0.3609284172
 31
0.0
  0
LINE
  5
3D622
330
3D61C
100
AcDbEntity
  8
0
  6
Continuous
 62
     0
370
     0
100
AcDbLine
 10
0.0
 20
-0.5303300536
 30
0.0
 11
-0.0073749931
 21
-0.5377051017
 31
0.0
  0
LINE
  5
3D623
330
3D61C
100
AcDbEntity
  8
0
  6
Continuous
 62
     0
370
     0
100
AcDbLine
 10
0.0011441151
 20
-0.7059626780000001
 30
0.0
 11
-0.0040707963
 21
-0.7111776444000001
 31
0.0
  0
LINE
  5
3D624
330
3D61C
100
AcDbEntity
  8
0
  6
Continuous
 62
     0
370
     0
100
AcDbLine
 10
0.1767767029
 20
-0.7071068114
 30
0.0
 11
0.1694016914
 21
-0.7144817129000001
 31
0.0
  0
LINE
  5
3D625
330
3D61C
100
AcDbEntity
  8
0
  6
Continuous
 62
     0
370
     0
100
AcDbLine
 10
0.0
 20
-0.7071068114
 30
0.0
 11
-0.0073749931
 21
-0.6997317633
 31
0.0
  0
LINE
  5
3D626
330
3D61C
100
AcDbEntity
  8
0
  6
Continuous
 62
     0
370
     0
100
AcDbLine
 10
0.1841517143
 20
-0.7144817129000001
 30
0.0
 11
0.1767767029
 21
-0.7071068114
 31
0.0
  0
LINE
  5
3D627
330
3D61C
100
AcDbEntity
  8
0
  6
Continuous
 62
     0
370
     0
100
AcDbLine
 10
0.0
 20
-0.3535533690999999
 30
0.0
 11
-0.0073749931
 21
-0.3461783942999999
 31
0.0
  0
LINE
  5
3D628
330
3D61C
100
AcDbEntity
  8
0
  6
Continuous
 62
     0
370
     0
100
AcDbLine
 10
0.0
 20
-0.1767766845
 30
0.0
 11
-0.0073749931
 21
-0.1694017097
 31
0.0
  0
LINE
  5
3D629
330
3D61C
100
AcDbEntity
  8
0
  6
Continuous
 62
     0
370
     0
100
AcDbLine
 10
0.0
 20
0.0
 30
0.0
 11
-0.0073749931
 21
0.0073749748
 31
0.0
  0
LINE
  5
3D62A
330
3D61C
100
AcDbEntity
  8
0
  6
Continuous
 62
     0
370
     0
100
AcDbLine
 10
0.0356744762
 20
0.0356744946
 30
0.0
 11
0.0307369633
 21
0.0307369449
 31
0.0
  0
LINE
  5
3D62B
330
3D61C
100
AcDbEntity
  8
0
  6
Continuous
 62
     0
370
     0
100
AcDbLine
 10
0.0824687423
 20
-0.0943079239
 30
0.0
 11
0.077531266
 21
-0.0992454735
 31
0.0
  0
LINE
  5
3D62C
330
3D61C
100
AcDbEntity
  8
0
  6
Continuous
 62
     0
370
     0
100
AcDbLine
 10
0.1596764471
 20
-0.1938769403
 30
0.0
 11
0.1561850874
 21
-0.1973683
 31
0.0
  0
LINE
  5
3D62D
330
3D61C
100
AcDbEntity
  8
0
  6
Continuous
 62
     0
370
     0
100
AcDbLine
 10
-0.0122369736
 20
0.012236992
 30
0.0
 11
-0.0123125061
 21
0.0123125244
 31
0.0
  0
LINE
  5
3D62E
330
3D61C
100
AcDbEntity
  8
0
  6
Continuous
 62
     0
370
     0
100
AcDbLine
 10
-1.6728238071
 20
-0.0818335547
 30
0.0
 11
-1.6783043838
 21
-0.0873141313
 31
0.0
  0
LINE
  5
3D62F
330
3D61C
100
AcDbEntity
  8
0
  6
Continuous
 62
     0
370
     0
100
AcDbLine
 10
-1.496164087899999
 20
-0.08195052
 30
0.0
 11
-1.503539135999999
 21
-0.0893255681
 31
0.0
  0
LINE
  5
3D630
330
3D61C
100
AcDbEntity
  8
0
  6
Continuous
 62
     0
370
     0
100
AcDbLine
 10
-1.433156229099999
 20
-0.0189426612
 30
0.0
 11
-1.4405312772
 21
-0.0263177093
 31
0.0
  0
LINE
  5
3D631
330
3D61C
100
AcDbEntity
  8
0
  6
Continuous
 62
     0
370
     0
100
AcDbLine
 10
-1.501664757599999
 20
-0.0893255681
 30
0.0
 11
-1.509039659099999
 21
-0.08195052
 31
0.0
  0
LINE
  5
3D632
330
3D61C
100
AcDbEntity
  8
0
  6
Continuous
 62
     0
370
     0
100
AcDbLine
 10
-1.433156229099999
 20
0.0189426612
 30
0.0
 11
-1.4498880624
 21
0.0356744946
 31
0.0
  0
LINE
  5
3D633
330
3D61C
100
AcDbEntity
  8
0
  6
Continuous
 62
     0
370
     0
100
AcDbLine
 10
0.2041719597
 20
1.6183855643
 30
0.0
 11
0.1967969849
 21
1.6110105161
 31
0.0
  0
LINE
  5
3D634
330
3D61C
100
AcDbEntity
  8
0
  6
Continuous
 62
     0
370
     0
100
AcDbLine
 10
0.2135001086
 20
1.627713676499999
 30
0.0
 11
0.2061250972
 21
1.6203386284
 31
0.0
  0
LINE
  5
3D635
330
3D61C
100
AcDbEntity
  8
0
  6
Continuous
 62
     0
370
     0
100
AcDbLine
 10
0.3531607286
 20
1.590597611899999
 30
0.0
 11
0.3457857171
 21
1.583222563799999
 31
0.0
  0
LINE
  5
3D636
330
3D61C
100
AcDbEntity
  8
0
  6
Continuous
 62
     0
370
     0
100
AcDbLine
 10
0.3531607286
 20
1.4138209274
 30
0.0
 11
0.3457857171
 21
1.4064458793
 31
0.0
  0
LINE
  5
3D637
330
3D61C
100
AcDbEntity
  8
0
  6
Continuous
 62
     0
370
     0
100
AcDbLine
 10
0.3531607286
 20
1.237044206199999
 30
0.0
 11
0.3457857171
 21
1.2296691948
 31
0.0
  0
LINE
  5
3D638
330
3D61C
100
AcDbEntity
  8
0
  6
Continuous
 62
     0
370
     0
100
AcDbLine
 10
0.3531607286
 20
1.060267521699999
 30
0.0
 11
0.3457857171
 21
1.052892510199999
 31
0.0
  0
LINE
  5
3D639
330
3D61C
100
AcDbEntity
  8
0
  6
Continuous
 62
     0
370
     0
100
AcDbLine
 10
0.3531607286
 20
0.8834908187999999
 30
0.0
 11
0.3457857171
 21
0.8761158073999999
 31
0.0
  0
LINE
  5
3D63A
330
3D61C
100
AcDbEntity
  8
0
  6
Continuous
 62
     0
370
     0
100
AcDbLine
 10
0.3531607286
 20
0.7067141171
 30
0.0
 11
0.3457857171
 21
0.6993391171
 31
0.0
  0
LINE
  5
3D63B
330
3D61C
100
AcDbEntity
  8
0
  6
Continuous
 62
     0
370
     0
100
AcDbLine
 10
0.3531607286
 20
0.5299374131
 30
0.0
 11
0.3457857171
 21
0.52256242
 31
0.0
  0
LINE
  5
3D63C
330
3D61C
100
AcDbEntity
  8
0
  6
Continuous
 62
     0
370
     0
100
AcDbLine
 10
0.3531607286
 20
0.3531607103
 30
0.0
 11
0.3457857171
 21
0.3457857355
 31
0.0
  0
LINE
  5
3D63D
330
3D61C
100
AcDbEntity
  8
0
  6
Continuous
 62
     0
370
     0
100
AcDbLine
 10
0.1093730382
 20
-0.067403628
 30
0.0
 11
0.1028240072
 21
-0.0739527324
 31
0.0
  0
LINE
  5
3D63E
330
3D61C
100
AcDbEntity
  8
0
  6
Continuous
 62
     0
370
     0
100
AcDbLine
 10
0.1187011504
 20
-0.0580755158
 30
0.0
 11
0.1113261756
 21
-0.0654505639
 31
0.0
  0
LINE
  5
3D63F
330
3D61C
100
AcDbEntity
  8
0
  6
Continuous
 62
     0
370
     0
100
AcDbLine
 10
0.3531607286
 20
0.1763840257
 30
0.0
 11
0.3457857171
 21
0.1690090143
 31
0.0
  0
LINE
  5
3D640
330
3D61C
100
AcDbEntity
  8
0
  6
Continuous
 62
     0
370
     0
100
AcDbLine
 10
0.2861497227
 20
-0.067403628
 30
0.0
 11
0.2787747479
 21
-0.0747786762
 31
0.0
  0
LINE
  5
3D641
330
3D61C
100
AcDbEntity
  8
0
  6
Continuous
 62
     0
370
     0
100
AcDbLine
 10
0.3531607286
 20
-0.0003926955
 30
0.0
 11
0.3457857171
 21
-0.0077676703
 31
0.0
  0
LINE
  5
3D642
330
3D61C
100
AcDbEntity
  8
0
  6
Continuous
 62
     0
370
     0
100
AcDbLine
 10
0.2515553423
 20
-0.0747786762
 30
0.0
 11
0.2441803675
 21
-0.067403628
 31
0.0
  0
LINE
  5
3D643
330
3D61C
100
AcDbEntity
  8
0
  6
Continuous
 62
     0
370
     0
100
AcDbLine
 10
0.2203482262
 20
-0.0435715233
 30
0.0
 11
0.2129732147
 21
-0.0361965485
 31
0.0
  0
LINE
  5
3D644
330
3D61C
100
AcDbEntity
  8
0
  6
Continuous
 62
     0
370
     0
100
AcDbLine
 10
0.3531607286
 20
0.0003926955
 30
0.0
 11
0.3457857171
 21
0.0077676703
 31
0.0
  0
LINE
  5
3D645
330
3D61C
100
AcDbEntity
  8
0
  6
Continuous
 62
     0
370
     0
100
AcDbLine
 10
0.3531607286
 20
0.1771693433
 30
0.0
 11
0.3457857171
 21
0.1845443548
 31
0.0
  0
LINE
  5
3D646
330
3D61C
100
AcDbEntity
  8
0
  6
Continuous
 62
     0
370
     0
100
AcDbLine
 10
0.3531607286
 20
0.3539460645000001
 30
0.0
 11
0.3457857171
 21
0.3613210393
 31
0.0
  0
LINE
  5
3D647
330
3D61C
100
AcDbEntity
  8
0
  6
Continuous
 62
     0
370
     0
100
AcDbLine
 10
0.3531607286
 20
0.7074994416
 30
0.0
 11
0.3457857171
 21
0.7148744413000001
 31
0.0
  0
LINE
  5
3D648
330
3D61C
100
AcDbEntity
  8
0
  6
Continuous
 62
     0
370
     0
100
AcDbLine
 10
0.3531607286
 20
0.8842761364000001
 30
0.0
 11
0.3457857171
 21
0.8916511295999999
 31
0.0
  0
LINE
  5
3D649
330
3D61C
100
AcDbEntity
  8
0
  6
Continuous
 62
     0
370
     0
100
AcDbLine
 10
0.3531607286
 20
1.0610528393
 30
0.0
 11
0.3457857171
 21
1.068427814099999
 31
0.0
  0
LINE
  5
3D64A
330
3D61C
100
AcDbEntity
  8
0
  6
Continuous
 62
     0
370
     0
100
AcDbLine
 10
0.3531607286
 20
1.414606245
 30
0.0
 11
0.3457857171
 21
1.421981219799999
 31
0.0
  0
LINE
  5
3D64B
330
3D61C
100
AcDbEntity
  8
0
  6
Continuous
 62
     0
370
     0
100
AcDbLine
 10
0.1567564208
 20
1.6110105161
 30
0.0
 11
0.1493814093
 21
1.6183855643
 31
0.0
  0
LINE
  5
3D64C
330
3D61C
100
AcDbEntity
  8
0
  6
Continuous
 62
     0
370
     0
100
AcDbLine
 10
0.1474283086
 20
1.6203386284
 30
0.0
 11
0.1400532971
 21
1.627713676499999
 31
0.0
  0
LINE
  5
3D64D
330
3D61C
100
AcDbEntity
  8
0
  6
Continuous
 62
     0
370
     0
100
AcDbLine
 10
0.3531607286
 20
1.591382929499999
 30
0.0
 11
0.3457857171
 21
1.5987579043
 31
0.0
  0
LINE
  5
3D64E
330
3D61C
100
AcDbEntity
  8
0
  6
Continuous
 62
     0
370
     0
100
AcDbLine
 10
0.3242049931
 20
1.6203386284
 30
0.0
 11
0.3168299816
 21
1.627713676499999
 31
0.0
  0
LINE
  5
3D64F
330
3D61C
100
AcDbEntity
  8
0
  6
Continuous
 62
     0
370
     0
100
AcDbLine
 10
0.2349017914
 20
1.4723386381
 30
0.0
 11
0.219270092
 21
1.4567069387
 31
0.0
  0
LINE
  5
3D650
330
3D61C
100
AcDbEntity
  8
0
  6
Continuous
 62
     0
370
     0
100
AcDbLine
 10
0.2266451034
 20
1.287305265599999
 30
0.0
 11
0.219270092
 21
1.2799302908
 31
0.0
  0
LINE
  5
3D651
330
3D61C
100
AcDbEntity
  8
0
  6
Continuous
 62
     0
370
     0
100
AcDbLine
 10
0.2266451034
 20
1.1105285811
 30
0.0
 11
0.2193655709
 21
1.103249048499999
 31
0.0
  0
LINE
  5
3D652
330
3D61C
100
AcDbEntity
  8
0
  6
Continuous
 62
     0
370
     0
100
AcDbLine
 10
0.3207811726
 20
1.0934323952
 30
0.0
 11
0.3134061612
 21
1.100807406699999
 31
0.0
  0
LINE
  5
3D653
330
3D61C
100
AcDbEntity
  8
0
  6
Continuous
 62
     0
370
     0
100
AcDbLine
 10
0.2266451034
 20
1.187568464399999
 30
0.0
 11
0.219270092
 21
1.1949434392
 31
0.0
  0
LINE
  5
3D654
330
3D61C
100
AcDbEntity
  8
0
  6
Continuous
 62
     0
370
     0
100
AcDbLine
 10
0.2266451034
 20
1.364345185599999
 30
0.0
 11
0.219270092
 21
1.371720160399999
 31
0.0
  0
LINE
  5
3D655
330
3D61C
100
AcDbEntity
  8
0
  6
Continuous
 62
     0
370
     0
100
AcDbLine
 10
0.1401750657
 20
1.554388596899999
 30
0.0
 11
0.1247592204
 21
1.5389727883
 31
0.0
  0
ENDBLK
  5
3D656
330
3D61C
100
AcDbEntity
  8
0
100
AcDbBlockEnd
  0
BLOCK
  5
3E68C
330
3E68B
100
AcDbEntity
  8
0
100
AcDbBlockBegin
  2
SW_CENTERMARKSYMBOL_128
 70
     0
 10
0.0
 20
0.0
 30
0.0
  3
SW_CENTERMARKSYMBOL_128
  1

  0
LINE
  5
3E68D
330
3E68B
100
AcDbEntity
  8
1
 62
     0
100
AcDbLine
 10
0.0
 20
0.0
 30
0.0
 11
0.0
 21
0.025
 31
0.0
  0
LINE
  5
3E68E
330
3E68B
100
AcDbEntity
  8
1
 62
     0
100
AcDbLine
 10
0.0
 20
0.0
 30
0.0
 11
-0.025
 21
0.0
 31
0.0
  0
LINE
  5
3E68F
330
3E68B
100
AcDbEntity
  8
1
 62
     0
100
AcDbLine
 10
0.0
 20
0.0
 30
0.0
 11
0.0
 21
-0.025
 31
0.0
  0
LINE
  5
3E690
330
3E68B
100
AcDbEntity
  8
1
 62
     0
100
AcDbLine
 10
0.0
 20
0.0
 30
0.0
 11
0.025
 21
0.0
 31
0.0
  0
LINE
  5
3E691
330
3E68B
100
AcDbEntity
  8
1
 62
     0
100
AcDbLine
 10
0.0
 20
0.05
 30
0.0
 11
0.0
 21
0.056988189
 31
0.0
  0
LINE
  5
3E692
330
3E68B
100
AcDbEntity
  8
1
 62
     0
100
AcDbLine
 10
-0.05
 20
0.0
 30
0.0
 11
-0.056988189
 21
0.0
 31
0.0
  0
LINE
  5
3E693
330
3E68B
100
AcDbEntity
  8
1
 62
     0
100
AcDbLine
 10
0.0
 20
-0.05
 30
0.0
 11
0.0
 21
-0.056988189
 31
0.0
  0
LINE
  5
3E694
330
3E68B
100
AcDbEntity
  8
1
 62
     0
100
AcDbLine
 10
0.05
 20
0.0
 30
0.0
 11
0.056988189
 21
0.0
 31
0.0
  0
ENDBLK
  5
3E695
330
3E68B
100
AcDbEntity
  8
0
100
AcDbBlockEnd
  0
ENDSEC
  0
SECTION
  2
ENTITIES
  0
TEXT
  5
3295
330
18
100
AcDbEntity
  8
1
 62
     7
100
AcDbText
 10
156.9212416267274
 20
64.40118027762498
 30
0.0
 40
1.078526742617534
  1
 
 41
0.9
  7
SIMPLEX
100
AcDbText
  0
TEXT
  5
BE88
330
18
100
AcDbEntity
  8
D
100
AcDbText
 10
163.4348285161749
 20
109.0993555109696
 30
0.0
 40
1.249999999999999
  1
 
100
AcDbText
  0
TEXT
  5
BE8D
330
18
100
AcDbEntity
  8
D
100
AcDbText
 10
170.5776856590321
 20
114.6549110665251
 30
0.0
 40
1.249999999999999
  1
 
100
AcDbText
  0
TEXT
  5
BE93
330
18
100
AcDbEntity
  8
D
100
AcDbText
 10
158.3157808971273
 20
94.65491106652516
 30
0.0
 40
1.249999999999999
  1
 
100
AcDbText
  0
TEXT
  5
17663
330
18
100
AcDbEntity
  8
D
100
AcDbText
 10
251.8579961546309
 20
64.12262984663342
 30
0.0
 40
1.249999999999999
  1
 
100
AcDbText
  0
LINE
  5
3E732
330
18
100
AcDbEntity
  8
0
  6
Continuous
 62
     7
370
    15
100
AcDbLine
 10
-95.36250478151822
 20
47.10189275798122
 30
0.0
 11
-55.71798296834849
 21
47.10189275798121
 31
0.0
  0
LINE
  5
3E733
330
18
100
AcDbEntity
  8
0
  6
Continuous
 62
     7
370
    15
100
AcDbLine
 10
-95.36250478151821
 20
46.88885106853809
 30
0.0
 11
-55.74444498994158
 21
46.8888510685381
 31
0.0
  0
LINE
  5
3E734
330
18
100
AcDbEntity
  8
0
  6
Continuous
 62
     8
370
    15
100
AcDbLine
 10
-95.36250478151821
 20
46.7761170765245
 30
0.0
 11
-55.75844773906894
 21
46.7761170765245
 31
0.0
  0
LINE
  5
3E735
330
18
100
AcDbEntity
  8
0
  6
Continuous
 62
     7
370
    15
100
AcDbLine
 10
-51.56837837829072
 20
47.10189275798122
 30
0.0
 11
-48.59149071778753
 21
47.10189275798121
 31
0.0
  0
LINE
  5
3E736
330
18
100
AcDbEntity
  8
0
  6
Continuous
 62
     7
370
    15
100
AcDbLine
 10
-51.5948404033803
 20
46.8888510685381
 30
0.0
 11
-48.59149071778753
 21
46.88885106853809
 31
0.0
  0
LINE
  5
3E737
330
18
100
AcDbEntity
  8
0
  6
Continuous
 62
     8
370
    15
100
AcDbLine
 10
-51.60884315435787
 20
46.7761170765245
 30
0.0
 11
-48.59149071778753
 21
46.7761170765245
 31
0.0
  0
MTEXT
  5
3E7BD
330
18
100
AcDbEntity
  8
D
100
AcDbMText
 10
-46.49475611340299
 20
16.9060687225365
 30
0.0
 40
1.5
 41
0.0
 71
     5
 72
     1
  1
\A1;155mm
 73
     1
 44
1.0
  0
SOLID
  5
3E7BE
330
18
100
AcDbEntity
  8
D
100
AcDbTrace
 10
-39.85419419508273
 20
17.1560687225365
 30
0.0
 11
-39.85419419508273
 21
16.6560687225365
 31
0.0
 12
-41.35419419508273
 22
16.9060687225365
 32
0.0
 13
-41.35419419508273
 23
16.9060687225365
 33
0.0
  0
SOLID
  5
3E7BF
330
18
100
AcDbEntity
  8
D
100
AcDbTrace
 10
-53.13531803172324
 20
17.1560687225365
 30
0.0
 11
-53.13531803172324
 21
16.6560687225365
 31
0.0
 12
-51.63531803172324
 22
16.9060687225365
 32
0.0
 13
-51.63531803172324
 23
16.9060687225365
 33
0.0
  0
LINE
  5
3E7C0
330
18
100
AcDbEntity
  8
D
100
AcDbLine
 10
-39.85419419508273
 20
16.9060687225365
 30
0.0
 11
-38.35419419508273
 21
16.9060687225365
 31
0.0
  0
LINE
  5
3E7C1
330
18
100
AcDbEntity
  8
D
100
AcDbLine
 10
-53.13531803172324
 20
16.9060687225365
 30
0.0
 11
-54.63531803172324
 21
16.9060687225365
 31
0.0
  0
LINE
  5
3E7C2
330
18
100
AcDbEntity
  8
D
100
AcDbLine
 10
-41.35419419508273
 20
39.93864367745639
 30
0.0
 11
-41.35419419508273
 21
16.1560687225365
 31
0.0
  0
LINE
  5
3E7C3
330
18
100
AcDbEntity
  8
D
100
AcDbLine
 10
-51.63531803172324
 20
21.09489442625491
 30
0.0
 11
-51.63531803172324
 21
16.1560687225365
 31
0.0
  0
MTEXT
  5
3E7C4
330
18
100
AcDbEntity
  8
D
100
AcDbMText
 10
-94.69209806914657
 20
10.95301341161891
 30
0.0
 40
1.5
 41
0.0
 71
     5
 72
     1
  1
Frame Opening\PWidth
 73
     1
 44
1.0
  0
SOLID
  5
3E7C5
330
18
100
AcDbEntity
  8
D
100
AcDbTrace
 10
-53.13531803172324
 20
11.20301341161891
 30
0.0
 11
-53.13531803172324
 21
10.70301341161891
 31
0.0
 12
-51.63531803172324
 22
10.95301341161891
 32
0.0
 13
-51.63531803172324
 23
10.95301341161891
 33
0.0
  0
LINE
  5
3E7C6
330
18
100
AcDbEntity
  8
D
100
AcDbLine
 10
-53.13531803172324
 20
10.95301341161891
 30
0.0
 11
-85.04924092628943
 21
10.95301341161891
 31
0.0
  0
LINE
  5
3E7C7
330
18
100
AcDbEntity
  8
D
100
AcDbLine
 10
-51.63531803172324
 20
21.09489442625491
 30
0.0
 11
-51.63531803172324
 21
10.20301341161891
 31
0.0
  0
LINE
  5
3E7C8
330
18
100
AcDbEntity
  8
0
100
AcDbLine
 10
-48.59781793812306
 20
78.46577353186204
 30
0.0
 11
-48.59781793812292
 21
43.49439397553576
 31
0.0
  0
LINE
  5
3E7C9
330
18
100
AcDbEntity
  8
0
100
AcDbLine
 10
-48.59781793812292
 20
89.01458267358066
 30
0.0
 11
-48.59781793812288
 21
82.86250452196098
 31
0.0
  0
LWPOLYLINE
  5
3E7CC
330
18
100
AcDbEntity
  8
0
100
AcDbPolyline
 90
        4
 70
     1
 43
0.0
 10
-45.2826941979624
 20
41.14688127809663
 10
-45.22869419796276
 20
41.14688127809651
 10
-45.22869419796276
 20
88.47197007294051
 10
-45.2826941979624
 20
88.47197007294051
  0
LWPOLYLINE
  5
3E7CD
330
18
100
AcDbEntity
  8
0
 62
     5
100
AcDbPolyline
 90
        8
 70
   129
 43
0.0
 10
-45.11619419508266
 20
41.77238127665666
 10
-45.0666941979625
 20
41.77238127665666
 10
-45.0666941979625
 20
40.57614367601646
 10
-41.51619419508321
 20
40.57614367601646
 10
-41.51619419508276
 20
89.04270767502044
 10
-45.0666941979625
 20
89.04270767502044
 10
-45.0666941979625
 20
87.84647007438048
 10
-45.11619419508266
 20
87.84647007438048
  0
HATCH
  5
3E7CE
330
18
100
AcDbEntity
  8
D
100
AcDbHatch
 10
0.0
 20
0.0
 30
0.0
210
0.0
220
0.0
230
1.0
  2
ANSI31
 70
     0
 71
     0
 91
        1
 92
       33
 93
       13
 72
     1
 10
-48.40769293812306
 20
40.57614367601646
 11
-41.62869419652267
 21
40.57614367601646
 72
     1
 10
-45.22869419796231
 20
41.77238127665643
 11
-45.0666941979625
 21
41.77238127665643
 72
     1
 10
-45.22869419796231
 20
41.77238127665643
 11
-45.22869419796231
 21
40.90689367601629
 72
     2
 10
-45.34119419508257
 20
40.90689367601632
 40
0.1124999999999928
 50
360.0000000001987
 51
450.0
 73
     0
 72
     2
 10
-45.34119419508257
 20
40.90689367601632
 40
0.2745000000000014
 50
360.0000000001009
 51
450.0
 73
     0
 72
     1
 10
-45.0666941979625
 20
41.77238127665631
 11
-45.0666941979625
 21
40.90689367601618
 72
     1
 10
-48.40769293812306
 20
40.4141436760161
 11
-41.62869419652267
 21
40.4141436760161
 72
     2
 10
-41.62869419652267
 20
40.68864367745638
 40
0.1125000000000144
 50
360.0000000001987
 51
450.0
 73
     0
 72
     2
 10
-41.62869419652267
 20
40.68864367745638
 40
0.2745000000000187
 50
360.0000000001009
 51
450.0
 73
     0
 72
     1
 10
-45.34119419508257
 20
40.63239367889607
 11
-48.40769293812283
 21
40.63239367889607
 72
     1
 10
-45.34119419508257
 20
40.79439367889617
 11
-48.40769293812283
 21
40.79439367889617
 72
     2
 10
-48.40769293812306
 20
40.60426867745647
 40
0.0281250000000533
 50
90.00000000000001
 51
270.0
 73
     0
 72
     2
 10
-48.40769293812306
 20
40.60426867745647
 40
0.1901250000000576
 50
90.00000000000001
 51
270.0
 73
     0
 97
        0
 75
     0
 76
     1
 52
89.99999999999998
 41
1.799999999999999
 77
     0
 78
     1
 53
224.9999999999999
 43
94.07827048309949
 44
233.5548384152951
 45
-0.1590990257669731
 46
0.1590990257669732
 79
     0
 98
        1
 10
94.07827048309949
 20
233.5548384152951
  0
HATCH
  5
3E7CF
330
18
100
AcDbEntity
  8
D
100
AcDbHatch
 10
0.0
 20
0.0
 30
0.0
210
0.0
220
0.0
230
1.0
  2
ANSI31
 70
     0
 71
     0
 91
        1
 92
       33
 93
       13
 72
     1
 10
-48.40769293812306
 20
89.04270767502044
 11
-41.62869419652267
 21
89.04270767502044
 72
     1
 10
-45.22869419796231
 20
87.84647007438048
 11
-45.0666941979625
 21
87.84647007438048
 72
     1
 10
-45.22869419796231
 20
87.84647007438048
 11
-45.22869419796231
 21
88.71195767502058
 72
     2
 10
-45.34119419508303
 20
88.7119576750207
 40
0.1124999999999928
 50
360.0000000001987
 51
450.0
 73
     1
 72
     2
 10
-45.34119419508303
 20
88.7119576750207
 40
0.2745000000000014
 50
360.0000000001009
 51
450.0
 73
     1
 72
     1
 10
-45.0666941979625
 20
87.84647007438048
 11
-45.0666941979625
 21
88.71195767502058
 72
     1
 10
-48.40769293812306
 20
89.2047076750207
 11
-41.62869419652267
 21
89.2047076750207
 72
     2
 10
-41.62869419652312
 20
88.93020767358041
 40
0.1125000000000144
 50
360.0000000001987
 51
450.0
 73
     1
 72
     2
 10
-41.62869419652312
 20
88.93020767358041
 40
0.2745000000000187
 50
360.0000000001009
 51
450.0
 73
     1
 72
     1
 10
-45.34119419508303
 20
88.98645767214066
 11
-48.40769293812329
 21
88.98645767214066
 72
     1
 10
-45.34119419508257
 20
88.82445767214063
 11
-48.40769293812283
 21
88.82445767214063
 72
     2
 10
-48.40769293812352
 20
89.01458267358043
 40
0.0281250000000533
 50
89.99999999999998
 51
270.0
 73
     1
 72
     2
 10
-48.40769293812352
 20
89.01458267358043
 40
0.1901250000000576
 50
89.99999999999998
 51
270.0
 73
     1
 97
        0
 75
     0
 76
     1
 52
89.99999999999998
 41
1.799999999999999
 77
     0
 78
     1
 53
134.9999999999999
 43
94.07827048309949
 44
-103.9359870642585
 45
-0.1590990257669732
 46
-0.1590990257669731
 79
     0
 98
        1
 10
94.07827048309949
 20
-103.9359870642585
  0
LWPOLYLINE
  5
3E7D0
330
18
100
AcDbEntity
  8
0
370
    15
100
AcDbPolyline
 90
        4
 70
     0
 43
0.0
 10
-45.06669419796295
 20
40.90689367601638
 10
-45.0666941979625
 20
41.77238127665654
 10
-45.22869419796276
 20
41.77238127665643
 10
-45.22869419796231
 20
40.90689367601638
  0
ARC
  5
3E7D1
330
18
100
AcDbEntity
  8
0
370
    15
100
AcDbCircle
 10
-48.40769293812283
 20
89.01458267358066
 30
0.0
 40
0.1901250000000576
100
AcDbArc
 50
90.0
 51
270.0
  0
ARC
  5
3E7D2
330
18
100
AcDbEntity
  8
0
370
    15
100
AcDbCircle
 10
-48.40769293812283
 20
89.01458267358066
 30
0.0
 40
0.0281250000000533
100
AcDbArc
 50
90.0
 51
270.0
  0
LINE
  5
3E7D3
330
18
100
AcDbEntity
  8
0
370
    15
100
AcDbLine
 10
-45.34119419508303
 20
88.82445767214079
 30
0.0
 11
-48.40769293812329
 21
88.82445767214079
 31
0.0
  0
LINE
  5
3E7D4
330
18
100
AcDbEntity
  8
0
370
    15
100
AcDbLine
 10
-45.34119419508303
 20
88.98645767214066
 30
0.0
 11
-48.40769293812283
 21
88.98645767214082
 31
0.0
  0
ARC
  5
3E7D5
330
18
100
AcDbEntity
  8
0
370
    15
100
AcDbCircle
 10
-41.62869419652245
 20
88.93020767358057
 30
0.0
 40
0.2745000000000187
100
AcDbArc
 50
0.0000000001009635
 51
90.0
  0
ARC
  5
3E7D6
330
18
100
AcDbEntity
  8
0
370
    15
100
AcDbCircle
 10
-41.62869419652245
 20
88.93020767358057
 30
0.0
 40
0.1125000000000144
100
AcDbArc
 50
0.0000000002019271
 51
90.0
  0
LINE
  5
3E7D7
330
18
100
AcDbEntity
  8
0
370
    15
100
AcDbLine
 10
-48.40769293812329
 20
89.04270767502049
 30
0.0
 11
-41.6286941965229
 21
89.04270767502049
 31
0.0
  0
LINE
  5
3E7D8
330
18
100
AcDbEntity
  8
0
370
    15
100
AcDbLine
 10
-48.40769293812329
 20
89.20470767502076
 30
0.0
 11
-41.6286941965229
 21
89.20470767502076
 31
0.0
  0
LINE
  5
3E7D9
330
18
100
AcDbEntity
  8
0
370
    15
100
AcDbLine
 10
-45.0666941979625
 20
87.84647007438048
 30
0.0
 11
-45.0666941979625
 21
88.71195767502063
 31
0.0
  0
ARC
  5
3E7DA
330
18
100
AcDbEntity
  8
0
370
    15
100
AcDbCircle
 10
-45.34119419508257
 20
88.71195767502076
 30
0.0
 40
0.2745000000000015
100
AcDbArc
 50
0.0000000001009635
 51
90.0
  0
ARC
  5
3E7DB
330
18
100
AcDbEntity
  8
0
370
    15
100
AcDbCircle
 10
-45.34119419508257
 20
88.71195767502076
 30
0.0
 40
0.1124999999999928
100
AcDbArc
 50
0.0000000002019271
 51
90.0
  0
LINE
  5
3E7DC
330
18
100
AcDbEntity
  8
0
370
    15
100
AcDbLine
 10
-45.22869419796276
 20
87.84647007438048
 30
0.0
 11
-45.22869419796276
 21
88.71195767502063
 31
0.0
  0
LINE
  5
3E7DD
330
18
100
AcDbEntity
  8
0
370
    15
100
AcDbLine
 10
-45.22869419796276
 20
87.84647007438048
 30
0.0
 11
-45.0666941979625
 21
87.84647007438048
 31
0.0
  0
ARC
  5
3E7DE
330
18
100
AcDbEntity
  8
0
370
    15
100
AcDbCircle
 10
-48.40769293812283
 20
40.60426867745647
 30
0.0
 40
0.0281250000000879
100
AcDbArc
 50
90.0
 51
270.0
  0
LINE
  5
3E7DF
330
18
100
AcDbEntity
  8
0
370
    15
100
AcDbLine
 10
-48.40769293812329
 20
40.63239367889662
 30
0.0
 11
-45.34119419508303
 21
40.63239367889662
 31
0.0
  0
LINE
  5
3E7E0
330
18
100
AcDbEntity
  8
0
370
    15
100
AcDbLine
 10
-48.40769293812329
 20
40.79439367889636
 30
0.0
 11
-45.34119419508303
 21
40.79439367889636
 31
0.0
  0
ARC
  5
3E7E1
330
18
100
AcDbEntity
  8
0
370
    15
100
AcDbCircle
 10
-48.40769293812283
 20
40.60426867745647
 30
0.0
 40
0.1901250000001353
100
AcDbArc
 50
90.0
 51
270.0
  0
LINE
  5
3E7E2
330
18
100
AcDbEntity
  8
0
370
    15
100
AcDbLine
 10
-41.35419419508318
 20
88.93020767358047
 30
0.0
 11
-41.35419419508273
 21
40.68864367745638
 31
0.0
  0
LINE
  5
3E7E3
330
18
100
AcDbEntity
  8
0
370
    15
100
AcDbLine
 10
-41.51619419508299
 20
88.93020767358047
 30
0.0
 11
-41.51619419508299
 21
40.68864367745627
 31
0.0
  0
ARC
  5
3E7E4
330
18
100
AcDbEntity
  8
0
370
    15
100
AcDbCircle
 10
-41.6286941965229
 20
40.68864367745627
 30
0.0
 40
0.1125000000000533
100
AcDbArc
 50
270.0
 51
0.0
  0
ARC
  5
3E7E5
330
18
100
AcDbEntity
  8
0
370
    15
100
AcDbCircle
 10
-41.6286941965229
 20
40.68864367745627
 30
0.0
 40
0.2745000000000576
100
AcDbArc
 50
270.0
 51
0.0
  0
ARC
  5
3E7E6
330
18
100
AcDbEntity
  8
0
370
    15
100
AcDbCircle
 10
-45.34119419508257
 20
40.90689367601629
 30
0.0
 40
0.1125000000000533
100
AcDbArc
 50
270.0
 51
0.0000000002019271
  0
ARC
  5
3E7E7
330
18
100
AcDbEntity
  8
0
370
    15
100
AcDbCircle
 10
-45.34119419508257
 20
40.90689367601629
 30
0.0
 40
0.2745000000000576
100
AcDbArc
 50
270.0
 51
359.9999999999023
  0
LINE
  5
3E7E8
330
18
100
AcDbEntity
  8
0
370
    15
100
AcDbLine
 10
-41.6286941965229
 20
40.57614367601644
 30
0.0
 11
-48.40769293812329
 21
40.57614367601644
 31
0.0
  0
LINE
  5
3E7E9
330
18
100
AcDbEntity
  8
0
370
    15
100
AcDbLine
 10
-41.6286941965229
 20
40.41414367601649
 30
0.0
 11
-48.40769293812329
 21
40.41414367601649
 31
0.0
  0
CIRCLE
  5
3E7EA
330
18
100
AcDbEntity
  8
0
  6
Continuous
 62
     7
370
    15
100
AcDbCircle
 10
-47.47281803172334
 20
42.36939442481554
 30
0.0
 40
0.3375
  0
LINE
  5
3E7EB
330
18
100
AcDbEntity
  8
D
  6
CENTER
 48
0.125
100
AcDbLine
 10
-45.78531803172333
 20
21.16989442625499
 30
0.0
 11
-45.78531803172333
 21
22.68189442625487
 31
0.0
  0
LWPOLYLINE
  5
3E7EC
330
18
100
AcDbEntity
  8
0
100
AcDbPolyline
 90
        4
 70
     0
 43
0.0
 10
-138.0353180317233
 20
43.05789442481532
 10
-138.0353180317233
 20
21.84489442625503
 10
-51.63531803172324
 20
21.84489442625491
 10
-51.63531803172324
 20
43.0578944248152
  0
HATCH
  5
3E7ED
330
18
100
AcDbEntity
  8
D
100
AcDbHatch
 10
0.0
 20
0.0
 30
0.0
210
0.0
220
0.0
230
1.0
  2
ANSI31
 70
     0
 71
     0
 91
        1
 92
        7
 72
     1
 73
     1
 93
       28
 10
-51.52281803172352
 20
43.49439442481545
 42
0.0
 10
-49.32231803172314
 20
43.49439442481545
 42
-0.4142135623730746
 10
-49.04781803172361
 20
43.21989442481546
 42
0.0
 10
-49.04781803172361
 20
39.15993330581759
 42
0.2239099574293442
 10
-49.00690152917102
 20
39.07314590527355
 42
0.0
 10
-46.78515429732303
 20
37.24061680193538
 42
-0.2239099590455706
 10
-46.68531803172342
 20
37.0288555476304
 42
0.0
 10
-46.68531803172342
 20
35.2107463170303
 42
0.1779653713254403
 10
-46.65853680247707
 20
35.1378865727236
 42
0.0
 10
-46.10513300148338
 20
34.48681245761546
 42
0.0
 10
-46.22856803172314
 20
34.38189442481533
 42
0.0
 10
-46.78197183252357
 20
35.03296854113543
 42
-0.1779653711374779
 10
-46.84731803172323
 20
35.21074631700677
 42
0.0
 10
-46.84731803172323
 20
37.02885554644095
 42
0.2239099575304372
 10
-46.88823453430948
 20
37.11564294701245
 42
0.0
 10
-49.10998176468362
 20
38.94817204769541
 42
-0.2239099582081192
 10
-49.20981803172342
 20
39.15993330593031
 42
0.0
 10
-49.20981803172342
 20
39.39489442625583
 42
0.0
 10
-49.20977015831519
 20
39.39489442625583
 42
0.0
 10
-49.20977015831519
 20
41.64489442481598
 42
0.0
 10
-49.20981803172342
 20
41.64489442481598
 42
0.0
 10
-49.20981803172342
 20
43.21989442481546
 42
0.4142135623730942
 10
-49.32231803172314
 20
43.33239442481548
 42
0.0
 10
-51.52281803172352
 20
43.33239442481548
 42
0.4142135623730951
 10
-51.63531803172324
 20
43.21989442481546
 42
0.0
 10
-51.63531803172324
 20
42.81939442481544
 42
0.0
 10
-51.79731803172305
 20
42.81939442481544
 42
0.0
 10
-51.79731803172305
 20
43.21989442481546
 42
-0.4142135623730951
 97
        0
 75
     0
 76
     1
 52
90.0
 41
1.8
 77
     0
 78
     1
 53
45.0
 43
404.207226788363
 44
45.52185724208138
 45
0.1590990257669733
 46
-0.1590990257669732
 79
     0
 47
0.0130877667080954
 98
        1
 10
-49.81656669983883
 20
43.38680207601098
  0
HATCH
  5
3E7EE
330
18
100
AcDbEntity
  8
D
100
AcDbHatch
 10
0.0
 20
0.0
 30
0.0
210
0.0
220
0.0
230
1.0
  2
ANSI31
 70
     0
 71
     0
 91
        1
 92
        7
 72
     1
 73
     1
 93
       13
 10
-51.63531803172324
 20
22.11939442625484
 42
0.0
 10
-51.63531803172324
 20
43.05789442481532
 42
-0.4142135623731739
 10
-51.36081803172325
 20
43.33239442481548
 42
0.0
 10
-50.51031803028351
 20
43.33239442481548
 42
0.0
 10
-50.51031803028351
 20
43.17039442481532
 42
0.0
 10
-51.36081803172325
 20
43.17039442481532
 42
0.4142135623730921
 10
-51.47331803172298
 20
43.05789442481532
 42
0.0
 10
-51.47331803172344
 20
22.11939442625484
 42
0.0
 10
-51.47331803172298
 20
22.00689442625495
 42
0.0
 10
-47.87331803172307
 20
22.00689442625495
 42
0.0
 10
-43.53531802884342
 20
22.00689442625483
 42
0.0
 10
-43.53531802884342
 20
21.84489442625503
 42
0.0
 10
-51.36081803172371
 20
21.84489442625503
 42
-0.4142135623730951
 97
        0
 75
     0
 76
     1
 52
0.0
 41
1.8
 77
     0
 78
     1
 53
135.0
 43
404.207226788363
 44
45.52185724208138
 45
0.1590990257669733
 46
0.1590990257669732
 79
     0
 47
0.0186259037274401
 98
        1
 10
-45.43924729202851
 20
21.91593629694577
  0
LINE
  5
3E7EF
330
18
100
AcDbEntity
  8
0
100
AcDbLine
 10
-49.20464520670609
 20
39.10689442565405
 30
0.0
 11
-51.47331803172298
 21
39.10689442565405
 31
0.0
  0
LINE
  5
3E7F0
330
18
100
AcDbEntity
  8
0
100
AcDbLine
 10
-46.86060549628424
 20
37.08189442663098
 30
0.0
 11
-47.87331803172352
 21
37.08189442663098
 31
0.0
  0
LINE
  5
3E7F1
330
18
100
AcDbEntity
  8
0
100
AcDbLine
 10
-47.00594303191471
 20
35.16939442485924
 30
0.0
 11
-47.87331803172352
 21
35.16939442485924
 31
0.0
  0
LINE
  5
3E7F2
330
18
100
AcDbEntity
  8
0
100
AcDbLine
 10
-46.35200306172279
 20
34.2769763931482
 30
0.0
 11
-47.87331803172352
 21
34.2769763931482
 31
0.0
  0
INSERT
  5
3E7F3
330
18
100
AcDbEntity
  8
0
100
AcDbBlockReference
  2
flash-section-new
 10
-51.63531803172324
 20
43.3323944248155
 30
0.0
 41
-0.45
 42
0.45
 43
0.45
  0
LWPOLYLINE
  5
3E7F4
330
18
100
AcDbEntity
  8
0
370
    15
100
AcDbPolyline
 90
       12
 70
     1
 43
0.0
 10
-50.51031803028351
 20
43.17039442481532
 10
-50.51031803028351
 20
43.33239442481519
 10
-51.36081803172325
 20
43.33239442481536
 42
0.4142135623730922
 10
-51.63531803172324
 20
43.05789442481532
 10
-51.63531803172324
 20
22.11939442625484
 42
0.4142135623730951
 10
-51.36081803172371
 20
21.84489442625503
 10
-43.53531802884342
 20
21.84489442625503
 10
-43.53531802884342
 20
22.00689442625483
 10
-51.36081803172371
 20
22.00689442625483
 42
-0.4142135623730951
 10
-51.47331803172344
 20
22.11939442625484
 10
-51.47331803172298
 20
43.05789442481532
 42
-0.4142135623730922
 10
-51.36081803172325
 20
43.17039442481532
  0
LWPOLYLINE
  5
3E7F5
330
18
100
AcDbEntity
  8
0
 62
     5
100
AcDbPolyline
 90
        5
 70
     1
 43
0.0
 10
-47.87331803172307
 20
37.92815399729537
 10
-47.87331803172307
 20
22.00689442625495
 10
-51.47331803172298
 20
22.00689442625495
 10
-51.47331803172298
 20
38.20689442625493
 10
-48.21126124681538
 20
38.20689442625493
  0
HATCH
  5
3E7F6
330
18
100
AcDbEntity
  8
0
 62
     5
100
AcDbHatch
 10
0.0
 20
0.0
 30
0.0
210
0.0
220
0.0
230
1.0
  2
INSUL
 70
     0
 71
     0
 91
        1
 92
        7
 72
     0
 73
     1
 93
        4
 10
-51.47331803172298
 20
38.20689442625493
 10
-47.87331803172307
 20
38.20689442625493
 10
-47.87331803172307
 20
22.00689442625495
 10
-51.47331803172298
 20
22.00689442625495
 97
        0
 75
     0
 76
     1
 52
45.0
 41
7.2
 77
     0
 78
     3
 53
45.0
 43
-174.0353180317233
 44
165.9001284458085
 45
-1.909188309203678
 46
1.909188309203678
 79
     0
 53
45.0
 43
-174.6717141347912
 44
166.5365245488764
 45
-1.909188309203678
 46
1.909188309203678
 79
     2
 49
0.9
 49
-0.9
 53
45.0
 43
-175.3081102378596
 44
167.1729206519443
 45
-1.909188309203678
 46
1.909188309203678
 79
     2
 49
0.9
 49
-0.9
 47
0.0365621540506944
 98
        1
 10
-48.99274271149849
 20
31.15474597092154
  0
LINE
  5
3E7F7
330
18
100
AcDbEntity
  8
0
100
AcDbLine
 10
-91.22674849113147
 20
42.81939442481544
 30
0.0
 11
-56.2499143647846
 21
42.81939442481544
 31
0.0
  0
LINE
  5
3E7F8
330
18
100
AcDbEntity
  8
0
100
AcDbLine
 10
-91.44288442568152
 20
43.49439442481545
 30
0.0
 11
-56.16607225565552
 21
43.49439442481545
 31
0.0
  0
HATCH
  5
3E7F9
330
18
100
AcDbEntity
  8
0
 62
     5
100
AcDbHatch
 10
0.0
 20
0.0
 30
0.0
210
0.0
220
0.0
230
1.0
  2
INSUL
 70
     0
 71
     0
 91
        1
 92
        7
 72
     0
 73
     1
 93
        8
 10
-41.51619419508321
 20
40.57614367601646
 10
-41.51619419508276
 20
89.04270767502044
 10
-45.0666941979625
 20
89.04270767502044
 10
-45.0666941979625
 20
87.84647007438048
 10
-45.11619419508221
 20
87.84647007438048
 10
-45.11619419508266
 20
41.77238127665666
 10
-45.0666941979625
 20
41.77238127665666
 10
-45.0666941979625
 20
40.57614367601646
 97
        0
 75
     0
 76
     1
 52
45.0
 41
7.2
 77
     0
 78
     3
 53
45.0
 43
-174.0353180317233
 44
165.9001284458085
 45
-1.909188309203678
 46
1.909188309203678
 79
     0
 53
45.0
 43
-174.6717141347912
 44
166.5365245488764
 45
-1.909188309203678
 46
1.909188309203678
 79
     2
 49
0.9
 49
-0.9
 53
45.0
 43
-175.3081102378596
 44
167.1729206519443
 45
-1.909188309203678
 46
1.909188309203678
 79
     2
 49
0.9
 49
-0.9
 47
0.0402785148031291
 98
        1
 10
-43.60089578321137
 20
84.34518575149992
  0
HATCH
  5
3E7FA
330
18
100
AcDbEntity
  8
D
100
AcDbHatch
 10
0.0
 20
0.0
 30
0.0
210
0.0
220
0.0
230
1.0
  2
ANSI31
 70
     0
 71
     0
 91
        1
 92
       33
 93
        2
 72
     1
 10
-41.51619419508321
 20
88.93020767358041
 11
-41.51619419508321
 21
40.68864367745624
 72
     1
 10
-41.3541941950834
 20
88.93020767358041
 11
-41.35419419508318
 21
40.68864367745624
 97
        0
 75
     0
 76
     1
 52
89.99999999999998
 41
1.799999999999999
 77
     0
 78
     1
 53
134.9999999999999
 43
67.05791598926978
 44
-5.1079400579072
 45
-0.1590990257669732
 46
-0.1590990257669731
 79
     0
 98
        1
 10
67.05791598926978
 20
-5.1079400579072
  0
LWPOLYLINE
  5
3E7FB
330
18
100
AcDbEntity
  8
Layer1
 48
10.0
100
AcDbPolyline
 90
        4
 70
     0
 43
0.0
 10
-49.20980182219725
 20
41.53239420305604
 10
-49.20980182219725
 20
43.33239420305605
 10
-49.65980182219706
 20
43.33239420305605
 10
-49.65980182219706
 20
41.64491620818043
  0
INSERT
  5
3E7FC
330
18
100
AcDbEntity
  8
0
100
AcDbBlockReference
  2
advel
 10
-47.47281793812314
 20
40.4141436760166
 30
0.0
 41
1.8
 42
1.8
 43
1.8
 50
90.0
  0
INSERT
  5
3E7FD
330
18
100
AcDbEntity
  8
0
100
AcDbBlockReference
  2
hge-frm-bolt
 10
-48.86061806628297
 20
42.36939420305609
 30
0.0
 41
1.8
 42
1.8
 43
1.8
 50
180.0
  0
LINE
  5
3E7FE
330
18
100
AcDbEntity
  8
0
370
    15
100
AcDbLine
 10
-48.59781793812314
 20
40.60426867745647
 30
0.0
 11
-48.59781793812314
 21
41.04797242599985
 31
0.0
  0
ARC
  5
3E7FF
330
18
100
AcDbEntity
  8
0
370
    15
100
AcDbCircle
 10
-48.40769293812283
 20
40.60426867745647
 30
0.0
 40
0.0281250000000879
100
AcDbArc
 50
90.0
 51
270.0
  0
ARC
  5
3E800
330
18
100
AcDbEntity
  8
0
370
    15
100
AcDbCircle
 10
-48.40769293812283
 20
40.60426867745647
 30
0.0
 40
0.1901250000001353
100
AcDbArc
 50
90.0
 51
270.0
  0
ARC
  5
3E801
330
18
100
AcDbEntity
  8
0
370
    15
100
AcDbCircle
 10
-47.41656803172324
 20
42.36939442481554
 30
0.0
 40
1.124999999999985
100
AcDbArc
 50
18.1948723387994
 51
90.0
  0
LINE
  5
3E802
330
18
100
AcDbEntity
  8
0
370
    15
100
AcDbLine
 10
-46.34781776964311
 20
42.36939526001655
 30
0.0
 11
-46.34781776964311
 21
42.72067593905643
 31
0.0
  0
LINE
  5
3E803
330
18
100
AcDbEntity
  8
0
370
    15
100
AcDbLine
 10
-48.59781810660294
 20
41.24439443057648
 30
0.0
 11
-49.04781806628304
 21
41.24439443057648
 31
0.0
  0
LINE
  5
3E804
330
18
100
AcDbEntity
  8
H
370
    15
100
AcDbLine
 10
-48.83024313252301
 20
43.49439397553573
 30
0.0
 11
-48.83024313252301
 21
41.24439443057648
 31
0.0
  0
LINE
  5
3E805
330
18
100
AcDbEntity
  8
0
370
    15
100
AcDbLine
 10
-47.41656797700281
 20
43.49439397553573
 30
0.0
 11
-49.04781806628304
 21
43.49439397553573
 31
0.0
  0
LINE
  5
3E806
330
18
100
AcDbEntity
  8
0
370
    15
100
AcDbLine
 10
-49.04781806628304
 20
43.49439397553573
 30
0.0
 11
-49.04781806628304
 21
41.24439443057648
 31
0.0
  0
ARC
  5
3E807
330
18
100
AcDbEntity
  8
0
370
    15
100
AcDbCircle
 10
-47.47281803172334
 20
42.36939442481554
 30
0.0
 40
1.125
100
AcDbArc
 50
102.838568141001
 51
180.0
  0
LINE
  5
3E808
330
18
100
AcDbEntity
  8
0
370
    15
100
AcDbLine
 10
-47.72279863044306
 20
43.46626879697498
 30
0.0
 11
-47.22283751076335
 21
43.46626879697498
 31
0.0
  0
ARC
  5
3E809
330
18
100
AcDbEntity
  8
0
370
    15
100
AcDbCircle
 10
-47.47281803172334
 20
42.36939442481554
 30
0.0
 40
1.125
100
AcDbArc
 50
0.0
 51
77.16143185899892
  0
LINE
  5
3E80A
330
18
100
AcDbEntity
  8
0
370
    15
100
AcDbLine
 10
-46.34781776964311
 20
40.79439367889657
 30
0.0
 11
-46.34781776964311
 21
42.36939526001655
 31
0.0
  0
LINE
  5
3E80B
330
18
100
AcDbEntity
  8
H
370
    15
100
AcDbLine
 10
-48.59781810660294
 20
41.02209421457604
 30
0.0
 11
-46.34781776964311
 21
41.02209421457604
 31
0.0
  0
LINE
  5
3E80C
330
18
100
AcDbEntity
  8
0
370
    15
100
AcDbLine
 10
-48.59781810660294
 20
40.79439367889657
 30
0.0
 11
-48.59781810660294
 21
42.36939526001655
 31
0.0
  0
LINE
  5
3E80D
330
18
100
AcDbEntity
  8
0
370
    15
100
AcDbLine
 10
-48.59781810660294
 20
40.79439367889657
 30
0.0
 11
-46.34781776964311
 21
40.79439367889657
 31
0.0
  0
INSERT
  5
3E80E
330
18
100
AcDbEntity
  8
0
100
AcDbBlockReference
  2
gskt-2
 10
-45.28269419796217
 20
45.31914442481567
 30
0.0
 41
1.8
 42
1.8
 43
1.8
 50
90.0
  0
INSERT
  5
3E80F
330
18
100
AcDbEntity
  8
0
100
AcDbBlockReference
  2
gskt-2
 10
-45.28269419796217
 20
87.02389127818236
 30
0.0
 41
1.8
 42
1.8
 43
1.8
 50
90.0
  0
LINE
  5
3E810
330
18
100
AcDbEntity
  8
0
100
AcDbLine
 10
-52.1003098450124
 20
42.81939442481544
 30
0.0
 11
-51.79731803172328
 21
42.81939442481544
 31
0.0
  0
LINE
  5
3E811
330
18
100
AcDbEntity
  8
0
100
AcDbLine
 10
-52.01646772480502
 20
43.49439442481545
 30
0.0
 11
-51.52281803172328
 21
43.49439442481545
 31
0.0
  0
LEADER
  5
3E812
330
18
100
AcDbEntity
  8
D
100
AcDbLeader
  3
STANDARD
 76
     3
 10
-47.1758712893006
 20
86.49939637061095
 30
0.0
 10
-53.3887286436752
 20
80.28544233266803
 30
0.0
 10
-54.73865642374582
 20
80.28544233266803
 30
0.0
1001
ACAD
1000
DSTYLE
1002
{
1070
     3
1000
mm
1070
    41
1040
1.5
1070
    42
1040
0.5
1070
    44
1040
0.5
1070
    45
1040
5.0
1070
    46
1040
0.5
1070
   140
1040
1.25
1070
   144
1040
25.4
1070
   147
1040
0.5
1070
   170
1070
     0
1070
   176
1070
   256
1070
   177
1070
   256
1070
   178
1070
   256
1070
   271
1070
     0
1070
   277
1070
     2
1070
   340
1005
10
1070
   371
1070
    -1
1070
   372
1070
    -1
1002
}
  0
LEADER
  5
3E813
330
18
100
AcDbEntity
  8
D
100
AcDbLeader
  3
STANDARD
 76
     3
 10
-43.22753820293198
 20
51.07240098518591
 30
0.0
 10
-37.77218941690259
 20
45.56981522427475
 30
0.0
 10
-36.42218941690223
 20
45.56981522427475
 30
0.0
1001
ACAD
1000
DSTYLE
1002
{
1070
     3
1000
mm
1070
    41
1040
1.0
1070
    42
1040
0.25
1070
    44
1040
0.25
1070
    46
1040
0.25
1070
   140
1040
0.5
1070
   144
1040
25.4
1070
   147
1040
0.375
1070
   271
1070
     0
1070
   341
1005
7DFC
1070
   371
1070
    -1
1070
   372
1070
    -1
1002
}
  0
LEADER
  5
3E814
330
18
100
AcDbEntity
  8
D
100
AcDbLeader
  3
STANDARD
 76
     3
 10
-45.23128512107402
 20
67.57576227272432
 30
0.0
 10
-37.77218941690259
 20
60.05519328526623
 30
0.0
 10
-36.42218941690269
 20
60.05519328526623
 30
0.0
1001
ACAD
1000
DSTYLE
1002
{
1070
     3
1000
mm
1070
    41
1040
1.5
1070
    42
1040
0.5
1070
    44
1040
0.5
1070
    45
1040
5.0
1070
    46
1040
0.5
1070
   140
1040
1.25
1070
   144
1040
25.4
1070
   147
1040
0.5
1070
   170
1070
     0
1070
   176
1070
   256
1070
   177
1070
   256
1070
   178
1070
   256
1070
   271
1070
     0
1070
   277
1070
     2
1070
   340
1005
10
1070
   371
1070
    -1
1070
   372
1070
    -1
1002
}
  0
LEADER
  5
3E815
330
18
100
AcDbEntity
  8
D
100
AcDbLeader
  3
STANDARD
 76
     3
 10
-41.35474647153521
 20
78.06249373226069
 30
0.0
 10
-37.77218941690259
 20
81.61732232808299
 30
0.0
 10
-36.42218941690269
 20
81.61732232808299
 30
0.0
1001
ACAD
1000
DSTYLE
1002
{
1070
     3
1000
mm
1070
    41
1040
1.5
1070
    42
1040
0.5
1070
    44
1040
0.5
1070
    45
1040
5.0
1070
    46
1040
0.5
1070
   140
1040
1.25
1070
   144
1040
25.4
1070
   147
1040
0.5
1070
   170
1070
     0
1070
   176
1070
   256
1070
   177
1070
   256
1070
   178
1070
   256
1070
   271
1070
     0
1070
   277
1070
     2
1070
   340
1005
10
1070
   371
1070
    -1
1070
   372
1070
    -1
1002
}
  0
LINE
  5
3E816
330
18
100
AcDbEntity
  8
0
 62
     4
100
AcDbLine
 10
-47.16706936131365
 20
45.31914556375681
 30
0.0
 11
-47.16706936131368
 21
78.77381049202094
 31
0.0
  0
LEADER
  5
3E817
330
18
100
AcDbEntity
  8
D
100
AcDbLeader
  3
STANDARD
 76
     3
 10
-51.77349593444663
 20
65.43961608701673
 30
0.0
 10
-59.04194694315859
 20
72.70403583025097
 30
0.0
 10
-60.39187472322876
 20
72.70403583025097
 30
0.0
1001
ACAD
1000
DSTYLE
1002
{
1070
     3
1000
mm
1070
    41
1040
1.5
1070
    42
1040
0.5
1070
    44
1040
0.5
1070
    45
1040
5.0
1070
    46
1040
0.5
1070
   140
1040
1.25
1070
   144
1040
25.4
1070
   147
1040
0.5
1070
   170
1070
     0
1070
   176
1070
   256
1070
   177
1070
   256
1070
   178
1070
   256
1070
   271
1070
     0
1070
   277
1070
     2
1070
   340
1005
10
1070
   371
1070
    -1
1070
   372
1070
    -1
1002
}
  0
LINE
  5
3E818
330
18
100
AcDbEntity
  8
0
 62
     4
100
AcDbLine
 10
-47.16706936131365
 20
83.57787907847638
 30
0.0
 11
-47.16706936131365
 21
87.02389241712353
 31
0.0
  0
LEADER
  5
3E819
330
18
100
AcDbEntity
  8
D
100
AcDbLeader
  3
STANDARD
 76
     3
 10
-92.7763798058072
 20
43.50340109738996
 30
0.0
 10
-86.96399358454346
 20
49.33088118120699
 30
0.0
 10
-85.61399358454355
 20
49.33088118120699
 30
0.0
1001
ACAD
1000
DSTYLE
1002
{
1070
     3
1000
mm
1070
    41
1040
1.5
1070
    42
1040
0.5
1070
    44
1040
0.5
1070
    45
1040
5.0
1070
    46
1040
0.5
1070
   140
1040
1.25
1070
   144
1040
25.4
1070
   147
1040
0.5
1070
   170
1070
     0
1070
   176
1070
   256
1070
   177
1070
   256
1070
   178
1070
   256
1070
   271
1070
     0
1070
   277
1070
     2
1070
   340
1005
10
1070
   371
1070
    -1
1070
   372
1070
    -1
1002
}
  0
LEADER
  5
3E821
330
18
100
AcDbEntity
  8
D
100
AcDbLeader
  3
STANDARD
 76
     3
 10
-49.78388184854563
 20
31.2566227111212
 30
0.0
 10
-37.77218941690259
 20
19.27600673890049
 30
0.0
 10
-36.42218941690245
 20
19.27600673890049
 30
0.0
1001
ACAD
1000
DSTYLE
1002
{
1070
     3
1000
mm
1070
    41
1040
1.0
1070
    42
1040
0.25
1070
    44
1040
0.25
1070
    46
1040
0.25
1070
   140
1040
0.5
1070
   144
1040
25.4
1070
   147
1040
0.375
1070
   271
1070
     0
1070
   341
1005
7DFC
1070
   371
1070
    -1
1070
   372
1070
    -1
1002
}
  0
LEADER
  5
3E829
330
18
100
AcDbEntity
  8
D
100
AcDbLeader
  3
STANDARD
 76
     3
 10
-46.36070157186438
 20
41.51785899578863
 30
0.0
 10
-37.77218941690259
 20
32.91778115396232
 30
0.0
 10
-36.42218941681287
 20
32.91778115396232
 30
0.0
1001
ACAD
1000
DSTYLE
1002
{
1070
     3
1000
mm
1070
    41
1040
1.5
1070
    42
1040
0.5
1070
    44
1040
0.5
1070
    45
1040
5.0
1070
    46
1040
0.5
1070
   140
1040
1.25
1070
   144
1040
25.4
1070
   147
1040
0.5
1070
   170
1070
     0
1070
   176
1070
   256
1070
   177
1070
   256
1070
   178
1070
   256
1070
   271
1070
     0
1070
   277
1070
     2
1070
   340
1005
10
1070
   371
1070
    -1
1070
   372
1070
    -1
1002
}
  0
MTEXT
  5
3E8B4
330
18
100
AcDbEntity
  8
D
100
AcDbMText
 10
-156.4854932329037
 20
32.669644426255
 30
0.0
 40
1.5
 41
0.0
 71
     5
 72
     1
  1
\A1;305mm
 11
0.999999984769129
 21
0.0001745329243133
 31
0.0
 73
     1
 44
1.0
  0
SOLID
  5
3E8B5
330
18
100
AcDbEntity
  8
D
100
AcDbTrace
 10
-156.7354932329037
 20
41.99439442625496
 30
0.0
 11
-156.2354932329037
 21
41.99439442625496
 31
0.0
 12
-156.4854932329037
 22
43.49439442625496
 32
0.0
 13
-156.4854932329037
 23
43.49439442625496
 33
0.0
  0
SOLID
  5
3E8B6
330
18
100
AcDbEntity
  8
D
100
AcDbTrace
 10
-156.7354932329037
 20
23.34489442625502
 30
0.0
 11
-156.2354932329037
 21
23.34489442625502
 31
0.0
 12
-156.4854932329037
 22
21.84489442625503
 32
0.0
 13
-156.4854932329037
 23
21.84489442625503
 33
0.0
  0
LINE
  5
3E8B7
330
18
100
AcDbEntity
  8
D
100
AcDbLine
 10
-156.4854932329037
 20
41.99439442625496
 30
0.0
 11
-156.4854932329037
 21
34.16964444910131
 31
0.0
  0
LINE
  5
3E8B8
330
18
100
AcDbEntity
  8
D
100
AcDbLine
 10
-156.4854932329037
 20
23.34489442625502
 30
0.0
 11
-156.4854932329037
 21
31.16964440340869
 31
0.0
  0
LINE
  5
3E8B9
330
18
100
AcDbEntity
  8
D
100
AcDbLine
 10
-141.0983180318771
 20
43.49439442625495
 30
0.0
 11
-157.2354932329037
 21
43.49439442625496
 31
0.0
  0
LINE
  5
3E8BA
330
18
100
AcDbEntity
  8
D
100
AcDbLine
 10
-146.885318035142
 20
21.84489442625503
 30
0.0
 11
-157.2354932329037
 21
21.84489442625503
 31
0.0
  0
MTEXT
  5
3E8BB
330
18
100
AcDbEntity
  8
D
100
AcDbMText
 10
-149.6551532817347
 20
28.11339442595205
 30
0.0
 40
1.5
 41
0.0
 71
     5
 72
     1
  1
\A1;177mm
 11
0.999999984769129
 21
0.0001745329243133
 31
0.0
 73
     1
 44
1.0
  0
SOLID
  5
3E8BC
330
18
100
AcDbEntity
  8
D
100
AcDbTrace
 10
-149.9051532817347
 20
32.88189442564905
 30
0.0
 11
-149.4051532817347
 21
32.88189442564905
 31
0.0
 12
-149.6551532817347
 22
34.38189442564905
 32
0.0
 13
-149.6551532817347
 23
34.38189442564905
 33
0.0
  0
SOLID
  5
3E8BD
330
18
100
AcDbEntity
  8
D
100
AcDbTrace
 10
-149.9051532817347
 20
23.34489442625502
 30
0.0
 11
-149.4051532817347
 21
23.34489442625502
 31
0.0
 12
-149.6551532817347
 22
21.84489442625503
 32
0.0
 13
-149.6551532817347
 23
21.84489442625503
 33
0.0
  0
LINE
  5
3E8BE
330
18
100
AcDbEntity
  8
D
100
AcDbLine
 10
-149.6551532817347
 20
32.88189442564905
 30
0.0
 11
-149.6551532817347
 21
29.61339444879835
 31
0.0
  0
LINE
  5
3E8BF
330
18
100
AcDbEntity
  8
D
100
AcDbLine
 10
-149.6551532817347
 20
23.34489442625502
 30
0.0
 11
-149.6551532817347
 21
26.61339440310574
 31
0.0
  0
LINE
  5
3E8C0
330
18
100
AcDbEntity
  8
D
100
AcDbLine
 10
-144.1920680320829
 20
34.38189442564905
 30
0.0
 11
-150.4051532817347
 21
34.38189442564905
 31
0.0
  0
LINE
  5
3E8C1
330
18
100
AcDbEntity
  8
D
100
AcDbLine
 10
-146.885318035142
 20
21.84489442625503
 30
0.0
 11
-150.4051532817347
 21
21.84489442625503
 31
0.0
  0
LINE
  5
3E8C2
330
18
100
AcDbEntity
  8
D
100
AcDbLine
 10
-138.0353180317233
 20
21.09489442625497
 30
0.0
 11
-138.0353180317233
 21
17.49540484926487
 31
0.0
  0
LINE
  5
3E8C3
330
18
100
AcDbEntity
  8
D
100
AcDbLine
 10
-143.8853180321123
 20
20.41989442621011
 30
0.0
 11
-143.8853180321123
 21
17.49540484926487
 31
0.0
  0
LINE
  5
3E8C4
330
18
100
AcDbEntity
  8
D
100
AcDbLine
 10
-138.0353180317233
 20
21.09489442625502
 30
0.0
 11
-138.0353180317233
 21
13.69987689722452
 31
0.0
  0
LINE
  5
3E8C5
330
18
100
AcDbEntity
  8
D
100
AcDbLine
 10
-146.135318035142
 20
21.09489442625502
 30
0.0
 11
-146.135318035142
 21
13.69987689722452
 31
0.0
  0
LINE
  5
3E8C6
330
18
100
AcDbEntity
  8
D
100
AcDbLine
 10
-138.0353180317233
 20
21.09489442625502
 30
0.0
 11
-138.0353180317233
 21
10.20301341161891
 31
0.0
  0
LINE
  5
3E8C7
330
18
100
AcDbEntity
  8
D
  6
CENTER
 48
0.125
100
AcDbLine
 10
-143.8853180317232
 20
21.16989442625499
 30
0.0
 11
-143.8853180317232
 21
22.68189442625487
 31
0.0
  0
HATCH
  5
3E8C8
330
18
100
AcDbEntity
  8
0
 62
     5
100
AcDbHatch
 10
0.0
 20
0.0
 30
0.0
210
0.0
220
0.0
230
1.0
  2
INSUL
 70
     0
 71
     0
 91
        1
 92
        7
 72
     0
 73
     1
 93
        4
 10
-138.1973180317231
 20
38.20689442625493
 10
-141.797318031723
 20
38.20689442625493
 10
-141.797318031723
 20
22.00689442625495
 10
-138.1973180317231
 20
22.00689442625495
 97
        0
 75
     0
 76
     1
 52
45.0
 41
7.2
 77
     0
 78
     3
 53
45.0
 43
-174.0353180317233
 44
165.9001284458085
 45
-1.909188309203678
 46
1.909188309203678
 79
     0
 53
45.0
 43
-174.6717141347912
 44
166.5365245488764
 45
-1.909188309203678
 46
1.909188309203678
 79
     2
 49
0.9
 49
-0.9
 53
45.0
 43
-175.3081102378596
 44
167.1729206519443
 45
-1.909188309203678
 46
1.909188309203678
 79
     2
 49
0.9
 49
-0.9
 47
0.0365621540506944
 98
        1
 10
-140.6778933519476
 20
31.15474597092154
  0
LWPOLYLINE
  5
3E8C9
330
18
100
AcDbEntity
  8
0
 62
     5
100
AcDbPolyline
 90
        5
 70
     1
 43
0.0
 10
-141.797318031723
 20
37.92815399729537
 10
-141.797318031723
 20
22.00689442625495
 10
-138.1973180317231
 20
22.00689442625495
 10
-138.1973180317231
 20
38.20689442625493
 10
-141.4593748166316
 20
38.20689442625493
  0
LWPOLYLINE
  5
3E8CA
330
18
100
AcDbEntity
  8
0
370
    15
100
AcDbPolyline
 90
       12
 70
     1
 43
0.0
 10
-139.160318033163
 20
43.17039442481532
 10
-139.160318033163
 20
43.33239442481519
 10
-138.3098180317237
 20
43.33239442481536
 42
-0.4142135623730922
 10
-138.0353180317233
 20
43.05789442481532
 10
-138.0353180317233
 20
22.11939442625484
 42
-0.4142135623730951
 10
-138.3098180317233
 20
21.84489442625503
 10
-146.1353180346036
 20
21.84489442625503
 10
-146.1353180346036
 20
22.00689442625483
 10
-138.3098180317233
 20
22.00689442625483
 42
0.4142135623730951
 10
-138.1973180317231
 20
22.11939442625484
 10
-138.1973180317236
 20
43.05789442481532
 42
0.4142135623730922
 10
-138.3098180317237
 20
43.17039442481532
  0
INSERT
  5
3E8CB
330
18
100
AcDbEntity
  8
0
100
AcDbBlockReference
  2
flash-section-new
 10
-138.0353180317233
 20
43.3323944248155
 30
0.0
 41
0.45
 42
0.45
 43
0.45
  0
LINE
  5
3E8CC
330
18
100
AcDbEntity
  8
0
100
AcDbLine
 10
-143.3186330017238
 20
34.2769763931482
 30
0.0
 11
-141.7973180317233
 21
34.2769763931482
 31
0.0
  0
LINE
  5
3E8CD
330
18
100
AcDbEntity
  8
0
100
AcDbLine
 10
-142.6646930315323
 20
35.16939442485924
 30
0.0
 11
-141.7973180317233
 21
35.16939442485924
 31
0.0
  0
LINE
  5
3E8CE
330
18
100
AcDbEntity
  8
0
100
AcDbLine
 10
-142.8100305671623
 20
37.08189442663098
 30
0.0
 11
-141.7973180317233
 21
37.08189442663098
 31
0.0
  0
LINE
  5
3E8CF
330
18
100
AcDbEntity
  8
0
100
AcDbLine
 10
-140.4659908567405
 20
39.10689442565405
 30
0.0
 11
-138.1973180317231
 21
39.10689442565405
 31
0.0
  0
HATCH
  5
3E8D0
330
18
100
AcDbEntity
  8
D
100
AcDbHatch
 10
0.0
 20
0.0
 30
0.0
210
0.0
220
0.0
230
1.0
  2
ANSI31
 70
     0
 71
     0
 91
        1
 92
        7
 72
     1
 73
     1
 93
       13
 10
-138.0353180317233
 20
22.11939442625484
 42
0.0
 10
-138.0353180317233
 20
43.05789442481532
 42
0.4142135623731739
 10
-138.3098180317237
 20
43.33239442481548
 42
0.0
 10
-139.160318033163
 20
43.33239442481548
 42
0.0
 10
-139.160318033163
 20
43.17039442481532
 42
0.0
 10
-138.3098180317237
 20
43.17039442481532
 42
-0.4142135623730921
 10
-138.1973180317236
 20
43.05789442481532
 42
0.0
 10
-138.1973180317231
 20
22.11939442625484
 42
0.0
 10
-138.1973180317231
 20
22.00689442625495
 42
0.0
 10
-141.797318031723
 20
22.00689442625495
 42
0.0
 10
-146.1353180346036
 20
22.00689442625483
 42
0.0
 10
-146.1353180346036
 20
21.84489442625503
 42
0.0
 10
-138.3098180317233
 20
21.84489442625503
 42
0.4142135623730951
 97
        0
 75
     0
 76
     1
 52
0.0
 41
1.8
 77
     0
 78
     1
 53
45.0
 43
-593.8778628518093
 44
45.52185724208138
 45
-0.1590990257669732
 46
0.1590990257669732
 79
     0
 47
0.0186259037274401
 98
        1
 10
-144.2313887714185
 20
21.91593629694577
  0
HATCH
  5
3E8D1
330
18
100
AcDbEntity
  8
D
100
AcDbHatch
 10
0.0
 20
0.0
 30
0.0
210
0.0
220
0.0
230
1.0
  2
ANSI31
 70
     0
 71
     0
 91
        1
 92
        7
 72
     1
 73
     1
 93
       28
 10
-138.1478180317235
 20
43.49439442481545
 42
0.0
 10
-140.3483180317234
 20
43.49439442481545
 42
0.4142135623730746
 10
-140.6228180317234
 20
43.21989442481546
 42
0.0
 10
-140.6228180317234
 20
39.15993330581759
 42
-0.2239099574293442
 10
-140.663734534276
 20
39.07314590527355
 42
0.0
 10
-142.8854817661235
 20
37.24061680193538
 42
0.2239099590455706
 10
-142.9853180317236
 20
37.0288555476304
 42
0.0
 10
-142.9853180317236
 20
35.2107463170303
 42
-0.1779653713254403
 10
-143.0120992609699
 20
35.1378865727236
 42
0.0
 10
-143.5655030619636
 20
34.48681245761546
 42
0.0
 10
-143.4420680317234
 20
34.38189442481533
 42
0.0
 10
-142.8886642309235
 20
35.03296854113543
 42
0.1779653711374779
 10
-142.8233180317233
 20
35.21074631700677
 42
0.0
 10
-142.8233180317233
 20
37.02885554644095
 42
-0.2239099575304372
 10
-142.7824015291375
 20
37.11564294701245
 42
0.0
 10
-140.5606542987634
 20
38.94817204769541
 42
0.2239099582081192
 10
-140.4608180317236
 20
39.15993330593031
 42
0.0
 10
-140.4608180317236
 20
39.39489442625583
 42
0.0
 10
-140.4608659051318
 20
39.39489442625583
 42
0.0
 10
-140.4608659051318
 20
41.64489442481598
 42
0.0
 10
-140.4608180317236
 20
41.64489442481598
 42
0.0
 10
-140.4608180317236
 20
43.21989442481546
 42
-0.4142135623730942
 10
-140.3483180317234
 20
43.33239442481548
 42
0.0
 10
-138.1478180317235
 20
43.33239442481548
 42
-0.4142135623730951
 10
-138.0353180317233
 20
43.21989442481546
 42
0.0
 10
-138.0353180317233
 20
42.81939442481544
 42
0.0
 10
-137.8733180317235
 20
42.81939442481544
 42
0.0
 10
-137.8733180317235
 20
43.21989442481546
 42
0.4142135623730951
 97
        0
 75
     0
 76
     1
 52
90.0
 41
1.8
 77
     0
 78
     1
 53
135.0
 43
-593.8778628518093
 44
45.52185724208138
 45
-0.1590990257669732
 46
-0.1590990257669732
 79
     0
 47
0.0130877667080954
 98
        1
 10
-139.8540693636077
 20
43.38680207601098
  0
LINE
  5
3E8D2
330
18
100
AcDbEntity
  8
0
100
AcDbLine
 10
-138.1478180317233
 20
43.49439442481545
 30
0.0
 11
-107.3546612630467
 21
43.49439442481535
 31
0.0
  0
LINE
  5
3E8D3
330
18
100
AcDbEntity
  8
0
100
AcDbLine
 10
-137.8733180317235
 20
42.81939442481544
 30
0.0
 11
-107.2737404010872
 21
42.81939442481544
 31
0.0
  0
LWPOLYLINE
  5
3E8D4
330
18
100
AcDbEntity
  8
0
100
AcDbPolyline
 90
       28
 70
     1
 43
0.0
 10
-96.75082275167321
 20
42.60643596037286
 10
-96.75082275167321
 20
43.27825849026559
 42
0.4142135623730951
 10
-96.85889071894823
 20
43.38632645754048
 10
-98.22775163776483
 20
43.38632645754055
 42
0.4142135623730951
 10
-98.33581960503986
 20
43.27825849026559
 10
-98.33581960503986
 20
40.10826478353161
 42
0.4142135623730951
 10
-98.22775163776483
 20
40.00019681625665
 10
-91.44288442568173
 20
40.00019681625665
 42
0.4142135623730951
 10
-91.33481645840673
 20
40.10826478353161
 10
-91.33481645840673
 20
43.27825849026559
 42
0.4142135623730951
 10
-91.44288442568173
 20
43.38632645754048
 10
-92.81174534449835
 20
43.38632645754048
 42
0.4142135623730951
 10
-92.91981331177337
 20
43.27825849026559
 10
-92.91981331177337
 20
42.60643596037286
 10
-93.02788127904884
 20
42.60643596037286
 10
-93.02788127904884
 20
43.27825849026559
 42
-0.4142135623730951
 10
-92.81174534449879
 20
43.49439442481545
 10
-91.44288442568173
 20
43.49439442481545
 42
-0.4142135623730951
 10
-91.2267484911317
 20
43.27825849026559
 10
-91.2267484911317
 20
40.10826478353161
 42
-0.4142135623730951
 10
-91.44288442568173
 20
39.89212884898163
 10
-98.2277516377653
 20
39.89212884898163
 42
-0.4142135623730951
 10
-98.44388757231534
 20
40.10826478353161
 10
-98.44388757231534
 20
43.27825849026559
 42
-0.4142135623730951
 10
-98.2277516377653
 20
43.49439442481545
 10
-96.85889071894823
 20
43.49439442481545
 42
-0.4142135623730951
 10
-96.64275478439819
 20
43.27825849026559
 10
-96.64275478439819
 20
42.60643596037286
  0
HATCH
  5
3E8D5
330
18
100
AcDbEntity
  8
D
100
AcDbHatch
 10
0.0
 20
0.0
 30
0.0
210
0.0
220
0.0
230
1.0
  2
ANSI31
 70
     0
 71
     0
 91
        1
 92
        7
 72
     1
 73
     1
 93
       28
 10
-92.91981331177337
 20
43.27825849026559
 42
-0.4142135623730951
 10
-92.81174534449835
 20
43.38632645754048
 42
0.0
 10
-91.44288442568173
 20
43.38632645754048
 42
-0.4142135623730951
 10
-91.33481645840673
 20
43.27825849026559
 42
0.0
 10
-91.33481645840673
 20
40.10826478353161
 42
-0.4142135623730951
 10
-91.44288442568173
 20
40.00019681625665
 42
0.0
 10
-98.22775163776483
 20
40.00019681625665
 42
-0.4142135623730951
 10
-98.33581960503986
 20
40.10826478353161
 42
0.0
 10
-98.33581960503986
 20
43.27825849026559
 42
-0.4142135623730951
 10
-98.22775163776483
 20
43.38632645754055
 42
0.0
 10
-96.85889071894823
 20
43.38632645754048
 42
-0.4142135623730951
 10
-96.75082275167321
 20
43.27825849026559
 42
0.0
 10
-96.75082275167321
 20
42.60643596037286
 42
0.0
 10
-96.64275478439819
 20
42.60643596037286
 42
0.0
 10
-96.64275478439819
 20
43.27825849026559
 42
0.4142135623730951
 10
-96.85889071894823
 20
43.49439442481545
 42
0.0
 10
-98.2277516377653
 20
43.49439442481545
 42
0.4142135623730951
 10
-98.44388757231534
 20
43.27825849026559
 42
0.0
 10
-98.44388757231534
 20
40.10826478353161
 42
0.4142135623730951
 10
-98.2277516377653
 20
39.89212884898163
 42
0.0
 10
-91.44288442568173
 20
39.89212884898163
 42
0.4142135623730951
 10
-91.2267484911317
 20
40.10826478353161
 42
0.0
 10
-91.2267484911317
 20
43.27825849026559
 42
0.4142135623730951
 10
-91.44288442568173
 20
43.49439442481545
 42
0.0
 10
-92.81174534449879
 20
43.49439442481545
 42
0.4142135623730951
 10
-93.02788127904884
 20
43.27825849026559
 42
0.0
 10
-93.02788127904884
 20
42.60643596037286
 42
0.0
 10
-92.91981331177337
 20
42.60643596037286
 42
0.0
 97
        0
 75
     0
 76
     1
 52
90.0
 41
1.8
 77
     0
 78
     1
 53
135.0
 43
0.0045164509997733
 44
165.9001284458085
 45
-0.1590990257669732
 46
-0.1590990257669732
 79
     0
 47
0.0101010230849819
 98
        1
 10
-92.97973488663407
 20
42.82553199666589
  0
HATCH
  5
3E8D6
330
18
100
AcDbEntity
  8
D
100
AcDbHatch
 10
0.0
 20
0.0
 30
0.0
210
0.0
220
0.0
230
1.0
  2
ANSI31
 70
     0
 71
     0
 91
        1
 92
       33
 93
        2
 72
     1
 10
-95.63700478295865
 20
48.32601826145562
 11
-143.8785687790829
 21
48.32601826145574
 72
     1
 10
-95.63700478295865
 20
48.4880182614555
 11
-143.8785687790829
 21
48.48801826145569
 97
        0
 75
     0
 76
     1
 52
180.0
 41
1.799999999999999
 77
     0
 78
     1
 53
315.0
 43
-189.6751525144459
 44
156.9001284458085
 45
-0.1590990257669731
 46
-0.1590990257669732
 79
     0
 98
        1
 10
-189.6751525144459
 20
156.9001284458085
  0
HATCH
  5
3E8D7
330
18
100
AcDbEntity
  8
0
 62
     5
100
AcDbHatch
 10
0.0
 20
0.0
 30
0.0
210
0.0
220
0.0
230
1.0
  2
INSUL
 70
     0
 71
     0
 91
        1
 92
        7
 72
     0
 73
     1
 93
        8
 10
-143.9910687805227
 20
48.32601826145586
 10
-95.52450478151829
 20
48.32601826145597
 10
-95.52450478151873
 20
44.77551825857617
 10
-96.72074238215826
 20
44.77551825857617
 10
-96.72074238215826
 20
44.72601826145617
 10
-142.7948311798827
 20
44.72601826145594
 10
-142.7948311798827
 20
44.77551825857605
 10
-143.9910687805227
 20
44.77551825857605
 97
        0
 75
     0
 76
     1
 52
45.0
 41
7.2
 77
     0
 78
     3
 53
45.0
 43
-174.0353180317233
 44
165.9001284458085
 45
-1.909188309203678
 46
1.909188309203678
 79
     0
 53
45.0
 43
-174.6717141347912
 44
166.5365245488764
 45
-1.909188309203678
 46
1.909188309203678
 79
     2
 49
0.9
 49
-0.9
 53
45.0
 43
-175.3081102378596
 44
167.1729206519443
 45
-1.909188309203678
 46
1.909188309203678
 79
     2
 49
0.9
 49
-0.9
 47
0.0402785148031291
 98
        1
 10
-100.2220267050388
 20
46.24131667332742
  0
LINE
  5
3E8D8
330
18
100
AcDbEntity
  8
0
370
    15
100
AcDbLine
 10
-144.1530687805225
 20
48.21351826001603
 30
0.0
 11
-144.1530687805225
 21
41.43451951841544
 31
0.0
  0
LINE
  5
3E8D9
330
18
100
AcDbEntity
  8
0
370
    15
100
AcDbLine
 10
-143.9910687805227
 20
48.21351826001583
 30
0.0
 11
-143.9910687805227
 21
41.43451951841544
 31
0.0
  0
ARC
  5
3E8DA
330
18
100
AcDbEntity
  8
0
370
    15
100
AcDbCircle
 10
-143.6603187805228
 20
44.50101826145584
 30
0.0
 40
0.2745000000000576
100
AcDbArc
 50
90.00000000009769
 51
180.0
  0
ARC
  5
3E8DB
330
18
100
AcDbEntity
  8
0
370
    15
100
AcDbCircle
 10
-143.6603187805228
 20
44.50101826145584
 30
0.0
 40
0.1125000000000533
100
AcDbArc
 50
89.99999999979808
 51
180.0
  0
ARC
  5
3E8DC
330
18
100
AcDbEntity
  8
0
370
    15
100
AcDbCircle
 10
-143.8785687790828
 20
48.21351826001592
 30
0.0
 40
0.2745000000000576
100
AcDbArc
 50
90.0
 51
180.0
  0
ARC
  5
3E8DD
330
18
100
AcDbEntity
  8
0
370
    15
100
AcDbCircle
 10
-143.8785687790828
 20
48.21351826001592
 30
0.0
 40
0.1125000000000533
100
AcDbArc
 50
90.0
 51
180.0
  0
LINE
  5
3E8DE
330
18
100
AcDbEntity
  8
0
370
    15
100
AcDbLine
 10
-95.63700478295842
 20
48.32601826145566
 30
0.0
 11
-143.8785687790828
 21
48.32601826145586
 31
0.0
  0
LINE
  5
3E8DF
330
18
100
AcDbEntity
  8
0
370
    15
100
AcDbLine
 10
-95.63700478295842
 20
48.4880182614555
 30
0.0
 11
-143.8785687790823
 21
48.48801826145569
 31
0.0
  0
ARC
  5
3E8E0
330
18
100
AcDbEntity
  8
0
370
    15
100
AcDbCircle
 10
-143.9629437790824
 20
41.43451951841575
 30
0.0
 40
0.1901250000001353
100
AcDbArc
 50
180.0
 51
0.0
  0
LINE
  5
3E8E1
330
18
100
AcDbEntity
  8
0
370
    15
100
AcDbLine
 10
-143.7728187776426
 20
41.43451951841544
 30
0.0
 11
-143.7728187776426
 21
44.50101826145564
 31
0.0
  0
LINE
  5
3E8E2
330
18
100
AcDbEntity
  8
0
370
    15
100
AcDbLine
 10
-143.9348187776426
 20
41.43451951841544
 30
0.0
 11
-143.9348187776426
 21
44.50101826145584
 31
0.0
  0
ARC
  5
3E8E3
330
18
100
AcDbEntity
  8
0
370
    15
100
AcDbCircle
 10
-143.9629437790824
 20
41.43451951841575
 30
0.0
 40
0.0281250000000879
100
AcDbArc
 50
180.0
 51
0.0
  0
LINE
  5
3E8E4
330
18
100
AcDbEntity
  8
0
370
    15
100
AcDbLine
 10
-96.7207423821587
 20
44.61351825857599
 30
0.0
 11
-96.7207423821587
 21
44.77551825857605
 31
0.0
  0
LINE
  5
3E8E5
330
18
100
AcDbEntity
  8
0
370
    15
100
AcDbLine
 10
-96.7207423821587
 20
44.61351825857599
 30
0.0
 11
-95.85525478151836
 21
44.61351825857621
 31
0.0
  0
ARC
  5
3E8E6
330
18
100
AcDbEntity
  8
0
370
    15
100
AcDbCircle
 10
-95.85525478151836
 20
44.50101826145595
 30
0.0
 40
0.1124999999999928
100
AcDbArc
 50
0.0
 51
89.99999999979808
  0
ARC
  5
3E8E7
330
18
100
AcDbEntity
  8
0
370
    15
100
AcDbCircle
 10
-95.85525478151836
 20
44.50101826145595
 30
0.0
 40
0.2745000000000015
100
AcDbArc
 50
0.0
 51
89.99999999989578
  0
LINE
  5
3E8E8
330
18
100
AcDbEntity
  8
0
370
    15
100
AcDbLine
 10
-96.7207423821587
 20
44.77551825857605
 30
0.0
 11
-95.85525478151836
 21
44.77551825857605
 31
0.0
  0
LINE
  5
3E8E9
330
18
100
AcDbEntity
  8
0
370
    15
100
AcDbLine
 10
-95.36250478151803
 20
41.43451951841564
 30
0.0
 11
-95.36250478151826
 21
48.21351826001603
 31
0.0
  0
LINE
  5
3E8EA
330
18
100
AcDbEntity
  8
0
370
    15
100
AcDbLine
 10
-95.52450478151852
 20
41.43451951841544
 30
0.0
 11
-95.52450478151852
 21
48.21351826001583
 31
0.0
  0
ARC
  5
3E8EB
330
18
100
AcDbEntity
  8
0
370
    15
100
AcDbCircle
 10
-95.63700478295842
 20
48.21351826001603
 30
0.0
 40
0.1125000000000144
100
AcDbArc
 50
0.0
 51
89.99999999979808
  0
ARC
  5
3E8EC
330
18
100
AcDbEntity
  8
0
370
    15
100
AcDbCircle
 10
-95.63700478295842
 20
48.21351826001603
 30
0.0
 40
0.2745000000000187
100
AcDbArc
 50
0.0
 51
89.99999999989578
  0
LINE
  5
3E8ED
330
18
100
AcDbEntity
  8
0
370
    15
100
AcDbLine
 10
-95.5807547843983
 20
44.50101826145584
 30
0.0
 11
-95.5807547843983
 21
41.43451951841564
 31
0.0
  0
LINE
  5
3E8EE
330
18
100
AcDbEntity
  8
0
370
    15
100
AcDbLine
 10
-95.7427547843981
 20
44.50101826145584
 30
0.0
 11
-95.7427547843981
 21
41.43451951841564
 31
0.0
  0
ARC
  5
3E8EF
330
18
100
AcDbEntity
  8
0
370
    15
100
AcDbCircle
 10
-95.55262978295852
 20
41.43451951841575
 30
0.0
 40
0.0281250000000533
100
AcDbArc
 50
180.0
 51
0.0
  0
ARC
  5
3E8F0
330
18
100
AcDbEntity
  8
0
370
    15
100
AcDbCircle
 10
-95.55262978295852
 20
41.43451951841575
 30
0.0
 40
0.1901250000000576
100
AcDbArc
 50
180.0
 51
0.0
  0
LWPOLYLINE
  5
3E8F1
330
18
100
AcDbEntity
  8
0
370
    15
100
AcDbPolyline
 90
        4
 70
     0
 43
0.0
 10
-143.660318780523
 20
44.77551825857583
 10
-142.7948311798827
 20
44.77551825857605
 10
-142.7948311798827
 20
44.61351825857602
 10
-143.660318780523
 20
44.61351825857619
  0
HATCH
  5
3E8F2
330
18
100
AcDbEntity
  8
D
100
AcDbHatch
 10
0.0
 20
0.0
 30
0.0
210
0.0
220
0.0
230
1.0
  2
ANSI31
 70
     0
 71
     0
 91
        1
 92
       33
 93
       13
 72
     1
 10
-95.52450478151873
 20
41.43451951841561
 11
-95.52450478151873
 21
48.213518260016
 72
     1
 10
-96.7207423821587
 20
44.61351825857619
 11
-96.7207423821587
 21
44.77551825857605
 72
     1
 10
-96.7207423821587
 20
44.61351825857619
 11
-95.85525478151859
 21
44.61351825857619
 72
     2
 10
-95.85525478151836
 20
44.50101826145586
 40
0.1124999999999928
 50
270.0000000001987
 51
360.0
 73
     0
 72
     2
 10
-95.85525478151836
 20
44.50101826145586
 40
0.2745000000000014
 50
270.000000000101
 51
360.0
 73
     0
 72
     1
 10
-96.7207423821587
 20
44.77551825857605
 11
-95.85525478151859
 21
44.77551825857605
 72
     1
 10
-95.36250478151847
 20
41.43451951841561
 11
-95.36250478151847
 21
48.213518260016
 72
     2
 10
-95.63700478295865
 20
48.21351826001583
 40
0.1125000000000144
 50
270.0000000001987
 51
360.0
 73
     0
 72
     2
 10
-95.63700478295865
 20
48.21351826001583
 40
0.2745000000000187
 50
270.000000000101
 51
360.0
 73
     0
 72
     1
 10
-95.58075478439874
 20
44.50101826145564
 11
-95.58075478439874
 21
41.43451951841544
 72
     1
 10
-95.7427547843981
 20
44.50101826145586
 11
-95.7427547843981
 21
41.43451951841567
 72
     2
 10
-95.55262978295875
 20
41.43451951841561
 40
0.0281250000000533
 50
0.0
 51
180.0
 73
     0
 72
     2
 10
-95.55262978295875
 20
41.43451951841561
 40
0.1901250000000576
 50
0.0
 51
180.0
 73
     0
 97
        0
 75
     0
 76
     1
 52
180.0
 41
1.799999999999999
 77
     0
 78
     1
 53
315.0000000000001
 43
-288.5031995207974
 44
183.9204829396377
 45
-0.1590990257669732
 46
-0.1590990257669732
 79
     0
 98
        1
 10
-288.5031995207974
 20
183.9204829396377
  0
HATCH
  5
3E8F3
330
18
100
AcDbEntity
  8
D
100
AcDbHatch
 10
0.0
 20
0.0
 30
0.0
210
0.0
220
0.0
230
1.0
  2
ANSI31
 70
     0
 71
     0
 91
        1
 92
       33
 93
       13
 72
     1
 10
-143.9910687805227
 20
41.43451951841561
 11
-143.9910687805227
 21
48.213518260016
 72
     1
 10
-142.7948311798827
 20
44.61351825857619
 11
-142.7948311798827
 21
44.77551825857605
 72
     1
 10
-142.7948311798827
 20
44.61351825857619
 11
-143.6603187805228
 21
44.61351825857619
 72
     2
 10
-143.660318780523
 20
44.50101826145586
 40
0.1124999999999928
 50
450.0000000001986
 51
540.0000000000001
 73
     1
 72
     2
 10
-143.660318780523
 20
44.50101826145586
 40
0.2745000000000014
 50
450.0000000001009
 51
540.0000000000001
 73
     1
 72
     1
 10
-142.7948311798827
 20
44.77551825857628
 11
-143.6603187805228
 21
44.77551825857628
 72
     1
 10
-144.1530687805229
 20
41.43451951841561
 11
-144.1530687805229
 21
48.213518260016
 72
     2
 10
-143.8785687790823
 20
48.213518260016
 40
0.1125000000000144
 50
450.0000000001986
 51
540.0000000000001
 73
     1
 72
     2
 10
-143.8785687790823
 20
48.213518260016
 40
0.2745000000000187
 50
450.0000000001009
 51
540.0000000000001
 73
     1
 72
     1
 10
-143.9348187776431
 20
44.50101826145586
 11
-143.9348187776431
 21
41.43451951841567
 72
     1
 10
-143.7728187776428
 20
44.50101826145604
 11
-143.7728187776428
 21
41.43451951841583
 72
     2
 10
-143.9629437790826
 20
41.43451951841561
 40
0.0281250000000533
 50
180.0
 51
360.0
 73
     1
 72
     2
 10
-143.9629437790826
 20
41.43451951841561
 40
0.1901250000000576
 50
180.0
 51
360.0
 73
     1
 97
        0
 75
     0
 76
     1
 52
180.0
 41
1.799999999999999
 77
     0
 78
     1
 53
225.0000000000001
 43
48.9876259587559
 44
183.9204829396379
 45
0.1590990257669732
 46
-0.1590990257669732
 79
     0
 98
        1
 10
48.9876259587559
 20
183.9204829396379
  0
LWPOLYLINE
  5
3E8F4
330
18
100
AcDbEntity
  8
0
 62
     5
100
AcDbPolyline
 90
        8
 70
   129
 43
0.0
 10
-142.7948311798827
 20
44.72601826145606
 10
-142.7948311798827
 20
44.77551825857605
 10
-143.9910687805227
 20
44.77551825857605
 10
-143.9910687805227
 20
48.32601826145586
 10
-95.52450478151829
 20
48.32601826145586
 10
-95.52450478151873
 20
44.77551825857605
 10
-96.72074238215826
 20
44.77551825857605
 10
-96.72074238215826
 20
44.72601826145606
  0
LWPOLYLINE
  5
3E8F5
330
18
100
AcDbEntity
  8
0
100
AcDbPolyline
 90
        4
 70
     1
 43
0.0
 10
-143.4203311784426
 20
44.55951825857627
 10
-143.4203311784426
 20
44.61351825857619
 10
-96.09524238359833
 20
44.61351825857602
 10
-96.09524238359833
 20
44.55951825857627
  0
LINE
  5
3E8F6
330
18
100
AcDbEntity
  8
0
100
AcDbLine
 10
-102.4189046324944
 20
42.81939442481544
 30
0.0
 11
-98.44388757231511
 21
42.81939442481544
 31
0.0
  0
LINE
  5
3E8F7
330
18
100
AcDbEntity
  8
0
100
AcDbLine
 10
-102.3379832649263
 20
43.49439442481545
 30
0.0
 11
-98.2277516377653
 21
43.49439442481545
 31
0.0
  0
LINE
  5
3E8F8
330
18
100
AcDbEntity
  8
0
370
    15
100
AcDbLine
 10
-143.7728187776426
 20
41.24439434993564
 30
0.0
 11
-143.7728187776426
 21
43.49439468689553
 31
0.0
  0
LINE
  5
3E8F9
330
18
100
AcDbEntity
  8
0
370
    15
100
AcDbLine
 10
-143.7728187776426
 20
41.24439434993564
 30
0.0
 11
-142.1978171965226
 21
41.24439434993564
 31
0.0
  0
LINE
  5
3E8FA
330
18
100
AcDbEntity
  8
H
370
    15
100
AcDbLine
 10
-143.5451182419633
 20
41.24439434993564
 30
0.0
 11
-143.5451182419633
 21
43.49439468689553
 31
0.0
  0
LINE
  5
3E8FB
330
18
100
AcDbEntity
  8
0
370
    15
100
AcDbLine
 10
-143.7728187776426
 20
43.49439468689553
 30
0.0
 11
-142.1978171965226
 21
43.49439468689553
 31
0.0
  0
ARC
  5
3E8FC
330
18
100
AcDbEntity
  8
0
370
    15
100
AcDbCircle
 10
-142.1978180317237
 20
42.36939442481554
 30
0.0
 40
1.125
100
AcDbArc
 50
12.83856814100144
 51
90.0
  0
LINE
  5
3E8FD
330
18
100
AcDbEntity
  8
0
370
    15
100
AcDbLine
 10
-141.1009436595643
 20
42.11941382609552
 30
0.0
 11
-141.1009436595643
 21
42.61937494577563
 31
0.0
  0
ARC
  5
3E8FE
330
18
100
AcDbEntity
  8
0
370
    15
100
AcDbCircle
 10
-142.1978180317237
 20
42.36939442481554
 30
0.0
 40
1.125
100
AcDbArc
 50
270.0
 51
347.1614318589986
  0
LINE
  5
3E8FF
330
18
100
AcDbEntity
  8
0
370
    15
100
AcDbLine
 10
-140.6228179971635
 20
43.49439397553573
 30
0.0
 11
-140.6228179971635
 21
41.24439443057648
 31
0.0
  0
LINE
  5
3E900
330
18
100
AcDbEntity
  8
0
370
    15
100
AcDbLine
 10
-142.254068086444
 20
43.49439397553573
 30
0.0
 11
-140.6228179971635
 21
43.49439397553573
 31
0.0
  0
LINE
  5
3E901
330
18
100
AcDbEntity
  8
H
370
    15
100
AcDbLine
 10
-140.8403929309238
 20
43.49439397553573
 30
0.0
 11
-140.8403929309238
 21
41.24439443057648
 31
0.0
  0
LINE
  5
3E902
330
18
100
AcDbEntity
  8
0
370
    15
100
AcDbLine
 10
-142.1977041808715
 20
41.24439443057648
 30
0.0
 11
-140.6228179971635
 21
41.24439443057648
 31
0.0
  0
INSERT
  5
3E903
330
18
100
AcDbEntity
  8
0
100
AcDbBlockReference
  2
hge-frm-bolt
 10
-140.8100179971636
 20
42.36939420305609
 30
0.0
 41
-1.8
 42
1.8
 43
1.8
 50
180.0
  0
INSERT
  5
3E904
330
18
100
AcDbEntity
  8
0
100
AcDbBlockReference
  2
advel
 10
-144.1530687805225
 20
42.36939451841559
 30
0.0
 41
-1.8
 42
1.8
 43
1.8
 50
180.0
  0
LWPOLYLINE
  5
3E905
330
18
100
AcDbEntity
  8
Layer1
 48
10.0
100
AcDbPolyline
 90
        4
 70
     0
 43
0.0
 10
-140.4608342412497
 20
41.53239420305604
 10
-140.4608342412497
 20
43.33239420305605
 10
-140.0108342412499
 20
43.33239420305605
 10
-140.0108342412499
 20
41.64491620818043
  0
CIRCLE
  5
3E906
330
18
100
AcDbEntity
  8
0
  6
Continuous
 62
     7
370
    15
100
AcDbCircle
 10
-142.1978180317237
 20
42.36939442481554
 30
0.0
 40
0.3375
  0
INSERT
  5
3E907
330
18
100
AcDbEntity
  8
0
100
AcDbBlockReference
  2
gskt-3
 10
-139.2480680317232
 20
44.55951825857624
 30
0.0
 41
1.8
 42
1.8
 43
1.8
  0
INSERT
  5
3E908
330
18
100
AcDbEntity
  8
0
100
AcDbBlockReference
  2
gskt-3
 10
-97.54332117835653
 20
44.55951825857624
 30
0.0
 41
1.8
 42
1.8
 43
1.8
  0
MTEXT
  5
3E90D
330
18
100
AcDbEntity
  8
D
100
AcDbMText
 10
-132.4638894602946
 20
18.24540484926487
 30
0.0
 40
1.5
 41
0.0
 71
     5
 72
     1
  1
\A1;83mm
 73
     1
 44
1.0
  0
SOLID
  5
3E90E
330
18
100
AcDbEntity
  8
D
100
AcDbTrace
 10
-139.5353180317233
 20
18.49540484926487
 30
0.0
 11
-139.5353180317233
 21
17.99540484926487
 31
0.0
 12
-138.0353180317233
 22
18.24540484926487
 32
0.0
 13
-138.0353180317233
 23
18.24540484926487
 33
0.0
  0
SOLID
  5
3E90F
330
18
100
AcDbEntity
  8
D
100
AcDbTrace
 10
-142.3853180321122
 20
18.49540484926487
 30
0.0
 11
-142.3853180321122
 21
17.99540484926487
 31
0.0
 12
-143.8853180321123
 22
18.24540484926487
 32
0.0
 13
-143.8853180321123
 23
18.24540484926487
 33
0.0
  0
LINE
  5
3E910
330
18
100
AcDbEntity
  8
D
100
AcDbLine
 10
-138.0353180317233
 20
18.24540484926487
 30
0.0
 11
-136.5353180317232
 21
18.24540484926487
 31
0.0
  0
LINE
  5
3E911
330
18
100
AcDbEntity
  8
D
100
AcDbLine
 10
-142.3853180321122
 20
18.24540484926487
 30
0.0
 11
-139.5353180317233
 21
18.24540484926487
 31
0.0
  0
MTEXT
  5
3E912
330
18
100
AcDbEntity
  8
D
100
AcDbMText
 10
-131.8567466031519
 20
14.44987689722452
 30
0.0
 40
1.5
 41
0.0
 71
     5
 72
     1
  1
\A1;114mm
 73
     1
 44
1.0
  0
SOLID
  5
3E913
330
18
100
AcDbEntity
  8
D
100
AcDbTrace
 10
-139.5353180317233
 20
14.69987689722453
 30
0.0
 11
-139.5353180317233
 21
14.19987689722453
 31
0.0
 12
-138.0353180317233
 22
14.44987689722452
 32
0.0
 13
-138.0353180317233
 23
14.44987689722452
 33
0.0
  0
SOLID
  5
3E914
330
18
100
AcDbEntity
  8
D
100
AcDbTrace
 10
-144.635318035142
 20
14.69987689722453
 30
0.0
 11
-144.635318035142
 21
14.19987689722453
 31
0.0
 12
-146.135318035142
 22
14.44987689722452
 32
0.0
 13
-146.135318035142
 23
14.44987689722452
 33
0.0
  0
LINE
  5
3E915
330
18
100
AcDbEntity
  8
D
100
AcDbLine
 10
-138.0353180317233
 20
14.44987689722452
 30
0.0
 11
-136.5353180317233
 21
14.44987689722452
 31
0.0
  0
LINE
  5
3E916
330
18
100
AcDbEntity
  8
D
100
AcDbLine
 10
-144.635318035142
 20
14.44987689722452
 30
0.0
 11
-139.5353180317233
 21
14.44987689722452
 31
0.0
  0
SOLID
  5
3E917
330
18
100
AcDbEntity
  8
D
100
AcDbTrace
 10
-136.5353180317233
 20
11.20301341161891
 30
0.0
 11
-136.5353180317233
 21
10.70301341161891
 31
0.0
 12
-138.0353180317233
 22
10.95301341161891
 32
0.0
 13
-138.0353180317233
 23
10.95301341161891
 33
0.0
  0
LINE
  5
3E918
330
18
100
AcDbEntity
  8
D
100
AcDbLine
 10
-136.5353180317233
 20
10.95301341161891
 30
0.0
 11
-104.3349552120037
 21
10.95301341161891
 31
0.0
  0
MTEXT
  5
3E919
330
18
100
AcDbEntity
  8
D
100
AcDbMText
 10
-35.89755683549308
 20
19.99469814334483
 30
0.0
 40
1.5
 41
0.0
 71
     1
 72
     1
  1
50mm Polyisocyanurate\PCurb Insulation
 73
     1
 44
1.0
  0
MTEXT
  5
3E91A
330
18
100
AcDbEntity
  8
D
100
AcDbMText
 10
-35.89755683549285
 20
46.28850662871909
 30
0.0
 40
1.5
 41
0.0
 71
     1
 72
     1
  1
50mm Polyisocyanurate\PCover Insulation
 73
     1
 44
1.0
  0
MTEXT
  5
3E91B
330
18
100
AcDbEntity
  8
D
100
AcDbMText
 10
-35.89755683540349
 20
33.63647255840667
 30
0.0
 40
1.5
 41
0.0
 71
     1
 72
     1
  1
Pintle Hinge
 73
     1
 44
1.0
  0
MTEXT
  5
3E91C
330
18
100
AcDbEntity
  8
D
100
AcDbMText
 10
-35.89755683549331
 20
60.77388468971057
 30
0.0
 40
1.5
 41
0.0
 71
     1
 72
     1
  1
Cover Liner\P1mm Aluminum
 73
     1
 44
1.0
  0
MTEXT
  5
3E91D
330
18
100
AcDbEntity
  8
D
100
AcDbMText
 10
-35.89755683549331
 20
82.33601373252733
 30
0.0
 40
1.5
 41
0.0
 71
     1
 72
     1
  1
Cover\P3mm Aluminum
 73
     1
 44
1.0
  0
MTEXT
  5
3E91E
330
18
100
AcDbEntity
  8
D
100
AcDbMText
 10
-55.55461305076455
 20
81.18104905333755
 30
0.0
 40
1.5
 41
0.0
 71
     3
 72
     1
  1
EPDM Gasket\P(All Around Cover)
 73
     1
 44
1.0
  0
MTEXT
  5
3E91F
330
18
100
AcDbEntity
  8
D
100
AcDbMText
 10
-61.28243701647308
 20
73.12246080990118
 30
0.0
 40
1.5
 41
0.0
 71
     3
 72
     1
  1
Actuator\P24VDC
 73
     1
 44
1.0
  0
MTEXT
  5
3E920
330
18
100
AcDbEntity
  8
D
100
AcDbMText
 10
-85.08936100313418
 20
50.04957258565133
 30
0.0
 40
1.5
 41
0.0
 71
     1
 72
     1
  1
Fixed Center Drain
 73
     1
 44
1.0
  0
MTEXT
  5
3E921
330
18
100
AcDbEntity
  8
D
100
AcDbMText
 10
-127.5001322490706
 20
59.06245748583287
 30
0.0
 40
1.5
 41
0.0
 71
     1
 72
     1
  1
Curb\P3mm Aluminum with Integral\PCapflashing and Bilclip\P2mm Aluminum
 73
     1
 44
1.0
  0
LEADER
  5
3E922
330
18
100
AcDbEntity
  8
D
100
AcDbLeader
  3
STANDARD
 76
     3
 10
-137.8784843436394
 20
43.27290022131893
 30
0.0
 10
-129.3747648304799
 20
58.34376608138853
 30
0.0
 10
-128.02476483048
 20
58.34376608138853
 30
0.0
1001
ACAD
1000
DSTYLE
1002
{
1070
     3
1000
mm
1070
    41
1040
1.5
1070
    42
1040
0.5
1070
    44
1040
0.5
1070
    45
1040
5.0
1070
    46
1040
0.5
1070
   140
1040
1.25
1070
   144
1040
25.4
1070
   147
1040
0.5
1070
   170
1070
     0
1070
   176
1070
   256
1070
   177
1070
   256
1070
   178
1070
   256
1070
   271
1070
     0
1070
   277
1070
     2
1070
   340
1005
10
1070
   371
1070
    -1
1070
   372
1070
    -1
1002
}
  0
CIRCLE
  5
3E92A
330
18
100
AcDbEntity
  8
D
100
AcDbCircle
 10
-100.6828155205213
 20
53.92769345945061
 30
0.0
 40
0.6793693440587616
  0
TEXT
  5
3E92B
330
18
100
AcDbEntity
  8
D
100
AcDbText
 10
-101.0381060797625
 20
53.53218595986577
 30
0.0
 40
0.7875000000000001
  1
R
100
AcDbText
  0
MTEXT
  5
3E92E
330
18
100
AcDbEntity
  8
D
100
AcDbMText
 10
-72.96807113876446
 20
58.71969638086156
 30
0.0
 40
1.5
 41
0.0
 71
     3
 72
     1
  1
Wind Deflector\P4mm Aluminum
 73
     1
 44
1.0
  0
LEADER
  5
3E92F
330
18
100
AcDbEntity
  8
D
100
AcDbLeader
  3
STANDARD
 76
     3
 10
-60.0824200599668
 20
47.10189275798121
 30
0.0
 10
-70.80218673167554
 20
57.82408966019204
 30
0.0
 10
-72.15211451174572
 20
57.82408966019204
 30
0.0
1001
ACAD
1000
DSTYLE
1002
{
1070
     3
1000
mm
1070
    41
1040
1.5
1070
    42
1040
0.5
1070
    44
1040
0.5
1070
    45
1040
5.0
1070
    46
1040
0.5
1070
   140
1040
1.25
1070
   144
1040
25.4
1070
   147
1040
0.5
1070
   170
1070
     0
1070
   176
1070
   256
1070
   177
1070
   256
1070
   178
1070
   256
1070
   271
1070
     0
1070
   277
1070
     2
1070
   340
1005
10
1070
   371
1070
    -1
1070
   372
1070
    -1
1002
}
  0
LINE
  5
3EBB8
330
18
100
AcDbEntity
  8
0
  6
Continuous
 62
     8
370
    15
100
AcDbLine
 10
-54.23841593965926
 20
26.97149206472506
 30
0.0
 11
-53.16305833403962
 21
35.63524308325401
 31
0.0
  0
LINE
  5
3EBB9
330
18
100
AcDbEntity
  8
0
  6
Continuous
 62
     7
370
    15
100
AcDbLine
 10
-55.87341866574803
 20
24.68253555063457
 30
0.0
 11
-55.96504045972088
 21
24.81335070817308
 31
0.0
  0
LINE
  5
3EBBA
330
18
100
AcDbEntity
  8
0
  6
Continuous
 62
     7
370
    15
100
AcDbLine
 10
-55.93100997835856
 20
24.53357513017056
 30
0.0
 11
-55.87341866574803
 21
24.68253555063457
 31
0.0
  0
LINE
  5
3EBBB
330
18
100
AcDbEntity
  8
0
  6
Continuous
 62
     7
370
    15
100
AcDbLine
 10
-56.13290475453749
 20
24.79293254731378
 30
0.0
 11
-56.19049581699655
 21
24.64396789521939
 31
0.0
  0
LINE
  5
3EBBC
330
18
100
AcDbEntity
  8
0
  6
Continuous
 62
     7
370
    15
100
AcDbLine
 10
-56.19049581699655
 20
24.64396789521939
 30
0.0
 11
-56.09887427317516
 21
24.51315696931127
 31
0.0
  0
LINE
  5
3EBBD
330
18
100
AcDbEntity
  8
0
  6
Continuous
 62
     7
370
    15
100
AcDbLine
 10
-55.96504045972088
 20
24.81335070817308
 30
0.0
 11
-56.13290475453749
 21
24.79293254731378
 31
0.0
  0
LINE
  5
3EBBE
330
18
100
AcDbEntity
  8
0
  6
Continuous
 62
     7
370
    15
100
AcDbLine
 10
-56.09887427317516
 20
24.51315696931127
 30
0.0
 11
-55.93100997835856
 21
24.53357513017056
 31
0.0
  0
CIRCLE
  5
3EBBF
330
18
100
AcDbEntity
  8
0
  6
Continuous
 62
     7
370
    15
100
AcDbCircle
 10
-56.03195698430543
 20
24.66325162918272
 30
0.0
 40
0.28183582860642
  0
LINE
  5
3EBC0
330
18
100
AcDbEntity
  8
0
  6
Continuous
 62
     7
370
    15
100
AcDbLine
 10
-58.43900474737933
 20
25.18943407712226
 30
0.0
 11
-58.18951231965161
 21
25.15844633230813
 31
0.0
  0
LINE
  5
3EBC1
330
18
100
AcDbEntity
  8
0
  6
Continuous
 62
     7
370
    15
100
AcDbLine
 10
-58.38342063946433
 20
25.63693360390829
 30
0.0
 11
-58.43900474737933
 21
25.18943407712226
 31
0.0
  0
LWPOLYLINE
  5
3EBC2
330
18
100
AcDbEntity
  8
0
  6
Continuous
 62
     7
370
    15
100
AcDbPolyline
 90
        8
 70
   128
 43
0.0
 10
-57.76998245427876
 20
25.10633521633597
 10
-57.75480223704477
 20
25.10445070927314
 10
-57.71109182238922
 20
25.09902014422788
 10
-57.64412380762348
 20
25.09070269530788
 10
-57.56197479592296
 20
25.08049870313521
 10
-57.47455421952387
 20
25.06963967621786
 10
-57.39240573496073
 20
25.05943561992686
 10
-57.27203451261246
 20
25.04448441144717
  0
LWPOLYLINE
  5
3EBC3
330
18
100
AcDbEntity
  8
0
  6
Continuous
 62
     7
370
    15
100
AcDbPolyline
 90
        9
 70
   128
 43
0.0
 10
-58.18951231965144
 20
25.15844633230813
 10
-58.12403551665321
 20
25.15031206868065
 10
-58.06107483397937
 20
25.14249216250411
 10
-58.00304958813922
 20
25.13528502513675
 10
-57.95219041493883
 20
25.12896725486718
 10
-57.91045112366425
 20
25.12378302207095
 10
-57.87943627470321
 20
25.11993157382884
 10
-57.86033716122108
 20
25.11755795802319
 10
-57.8538887403102
 20
25.11675825329391
  0
LINE
  5
3EBC4
330
18
100
AcDbEntity
  8
0
  6
Continuous
 62
     7
370
    15
100
AcDbLine
 10
-58.13392848058277
 20
25.60594369536442
 30
0.0
 11
-58.18951231965161
 21
25.15844633230813
 31
0.0
  0
LINE
  5
3EBC5
330
18
100
AcDbEntity
  8
0
  6
Continuous
 62
     7
370
    15
100
AcDbLine
 10
-57.7983043741026
 20
25.56425568046869
 30
0.0
 11
-58.36843249931963
 21
25.63507263654657
 31
0.0
  0
LINE
  5
3EBC6
330
18
100
AcDbEntity
  8
0
  6
Continuous
 62
     7
370
    15
100
AcDbLine
 10
-57.7983043741026
 20
25.56425568046869
 30
0.0
 11
-57.85388874031056
 21
25.1167582532939
 31
0.0
  0
LINE
  5
3EBC7
330
18
100
AcDbEntity
  8
0
  6
Continuous
 62
     7
370
    15
100
AcDbLine
 10
-57.7699824542787
 20
25.10633521633597
 30
0.0
 11
-57.85388874031056
 21
25.1167582532939
 31
0.0
  0
LINE
  5
3EBC8
330
18
100
AcDbEntity
  8
0
  6
Continuous
 62
     7
370
    15
100
AcDbLine
 10
-57.74219066245851
 20
25.33008494784399
 30
0.0
 11
-57.7699824542787
 21
25.10633521633597
 31
0.0
  0
LINE
  5
3EBC9
330
18
100
AcDbEntity
  8
0
  6
Continuous
 62
     7
370
    15
100
AcDbLine
 10
-57.27203451261246
 20
25.2716849185823
 30
0.0
 11
-57.74219066245851
 21
25.33008494784399
 31
0.0
  0
LWPOLYLINE
  5
3EBCA
330
18
100
AcDbEntity
  8
0
  6
Continuous
 62
     7
370
    15
100
AcDbPolyline
 90
        9
 70
   128
 43
0.0
 10
-58.34173268833882
 20
25.97255823466205
 10
-58.3395831284881
 20
25.97229096559352
 10
-58.33321684354064
 20
25.97150046115056
 10
-58.32287813109076
 20
25.97021456434054
 10
-58.30896529210517
 20
25.9684871666591
 10
-58.29201205961433
 20
25.96638126449254
 10
-58.27267074780173
 20
25.9639795445209
 10
-58.25168367847087
 20
25.96137292752052
 10
-58.22985772818782
 20
25.9586615507345
  0
LWPOLYLINE
  5
3EBCB
330
18
100
AcDbEntity
  8
0
  6
Continuous
 62
     7
370
    15
100
AcDbPolyline
 90
        9
 70
   128
 43
0.0
 10
-58.25070170214369
 20
25.79084923409957
 10
-58.26530463991173
 20
25.7926632524639
 10
-58.27965699223014
 20
25.79444591895674
 10
-58.29351472175756
 20
25.79616722788585
 10
-58.30663905611138
 20
25.79779652734174
 10
-58.31880668604748
 20
25.79930767764294
 10
-58.32980926927461
 20
25.80067485254048
 10
-58.33945788007844
 20
25.80187412901583
 10
-58.34758826672175
 20
25.80288285070553
  0
LINE
  5
3EBCC
330
18
100
AcDbEntity
  8
0
  6
Continuous
 62
     7
370
    15
100
AcDbLine
 10
-58.38342063946433
 20
25.63693360390829
 30
0.0
 11
-58.34173268833868
 21
25.97255823466201
 31
0.0
  0
LWPOLYLINE
  5
3EBCD
330
18
100
AcDbEntity
  8
0
  6
Continuous
 62
     7
370
    15
100
AcDbPolyline
 90
        9
 70
   128
 43
0.0
 10
-58.36843249931951
 20
25.6350726365466
 10
-58.3718832934592
 20
25.63549929291308
 10
-58.37490479466669
 20
25.63587583039681
 10
-58.37748337574002
 20
25.63619538242627
 10
-58.37960853331771
 20
25.63645922076251
 10
-58.38127107996186
 20
25.63666633770478
 10
-58.38246341112119
 20
25.63681552138878
 10
-58.38318080993994
 20
25.63690308058412
 10
-58.3834206394641
 20
25.63693360390838
  0
LINE
  5
3EBCE
330
18
100
AcDbEntity
  8
0
  6
Continuous
 62
     7
370
    15
100
AcDbLine
 10
-58.34758826672185
 20
25.80288285070546
 30
0.0
 11
-58.36843249931963
 21
25.63507263654657
 31
0.0
  0
LINE
  5
3EBCF
330
18
100
AcDbEntity
  8
0
  6
Continuous
 62
     7
370
    15
100
AcDbLine
 10
-57.07302487106904
 20
25.81497132247144
 30
0.0
 11
-58.22985772818825
 21
25.95866155073449
 31
0.0
  0
LINE
  5
3EBD0
330
18
100
AcDbEntity
  8
0
  6
Continuous
 62
     7
370
    15
100
AcDbLine
 10
-57.27203451261246
 20
25.66928886225472
 30
0.0
 11
-58.25070170214363
 21
25.79084923409954
 31
0.0
  0
LINE
  5
3EBD1
330
18
100
AcDbEntity
  8
0
  6
Continuous
 62
     7
370
    15
100
AcDbLine
 10
-58.22985772818825
 20
25.95866155073449
 30
0.0
 11
-58.25070170214363
 21
25.79084923409954
 31
0.0
  0
LINE
  5
3EBD2
330
18
100
AcDbEntity
  8
0
  6
Continuous
 62
     7
370
    15
100
AcDbLine
 10
-58.34173268833868
 20
25.97255823466201
 30
0.0
 11
-57.08180233127632
 21
36.12199153544421
 31
0.0
  0
LINE
  5
3EBD3
330
18
100
AcDbEntity
  8
0
  6
Continuous
 62
     7
370
    15
100
AcDbLine
 10
-52.99524641241032
 20
35.61439905834408
 30
0.0
 11
-54.05891496878712
 21
27.04472847972677
 31
0.0
  0
LINE
  5
3EBD4
330
18
100
AcDbEntity
  8
0
  6
Continuous
 62
     7
370
    15
100
AcDbLine
 10
-58.17392089849391
 20
25.95171419372247
 30
0.0
 11
-57.07302479245433
 21
25.81497135454623
 31
0.0
  0
LINE
  5
3EBD5
330
18
100
AcDbEntity
  8
0
  6
Continuous
 62
     7
370
    15
100
AcDbLine
 10
-56.91399054429595
 20
36.10114749415624
 30
0.0
 11
-58.17392089849391
 21
25.95171419372247
 31
0.0
  0
LINE
  5
3EBD6
330
18
100
AcDbEntity
  8
0
  6
Continuous
 62
     7
370
    15
100
AcDbLine
 10
-56.99147835824863
 20
36.84917610865148
 30
0.0
 11
-55.0352329100383
 21
52.59860907567179
 31
0.0
  0
LWPOLYLINE
  5
3EBD7
330
18
100
AcDbEntity
  8
0
  6
Continuous
 62
     7
370
    15
100
AcDbPolyline
 90
        9
 70
   128
 43
0.0
 10
-56.82366630804759
 20
36.82833210228756
 10
-56.85640484379516
 20
36.83239815080407
 10
-56.88788543947672
 20
36.83631020689114
 10
-56.91689767219765
 20
36.83991275461494
 10
-56.94232739482652
 20
36.84307055914331
 10
-56.96319690460899
 20
36.84566375758038
 10
-56.97870432765739
 20
36.84758948187573
 10
-56.9882537579422
 20
36.8487752381921
 10
-56.99147835824828
 20
36.84917610865154
  0
LINE
  5
3EBD8
330
18
100
AcDbEntity
  8
0
  6
Continuous
 62
     7
370
    15
100
AcDbLine
 10
-54.86272797626156
 20
36.58476250927663
 30
0.0
 11
-52.9064825918212
 21
52.33419600057061
 31
0.0
  0
LINE
  5
3EBD9
330
18
100
AcDbEntity
  8
0
  6
Continuous
 62
     7
370
    15
100
AcDbLine
 10
-54.86742098840898
 20
52.57776505076183
 30
0.0
 11
-56.82366630804773
 21
36.82833210228756
 31
0.0
  0
LINE
  5
3EBDA
330
18
100
AcDbEntity
  8
0
  6
Continuous
 62
     7
370
    15
100
AcDbLine
 10
-56.82366630804773
 20
36.82833210228756
 30
0.0
 11
-54.86272797626156
 21
36.58476250927663
 31
0.0
  0
LINE
  5
3EBDB
330
18
100
AcDbEntity
  8
0
  6
Continuous
 62
     7
370
    15
100
AcDbLine
 10
-54.24741777091688
 20
36.50833582424971
 30
0.0
 11
-53.07273422922754
 21
36.36242767249087
 31
0.0
  0
LINE
  5
3EBDC
330
18
100
AcDbEntity
  8
0
  6
Continuous
 62
     7
370
    15
100
AcDbLine
 10
-54.24741777091688
 20
36.50833582424971
 30
0.0
 11
-52.29117206303346
 21
52.2577677558873
 31
0.0
  0
LINE
  5
3EBDD
330
18
100
AcDbEntity
  8
0
  6
Continuous
 62
     7
370
    15
100
AcDbLine
 10
-53.07273422922754
 20
36.36242767249087
 30
0.0
 11
-51.11648848696574
 21
52.11185960831014
 31
0.0
  0
LWPOLYLINE
  5
3EBDE
330
18
100
AcDbEntity
  8
0
  6
Continuous
 62
     7
370
    15
100
AcDbPolyline
 90
        9
 70
   128
 43
0.0
 10
-52.90492227356754
 20
36.34158365462753
 10
-52.90814680798149
 20
36.34198453310174
 10
-52.91769623826621
 20
36.34317028941814
 10
-52.93320366417887
 20
36.34509601336509
 10
-52.95407330574739
 20
36.34768919577246
 10
-52.9795028965911
 20
36.35084701633028
 10
-53.00851545098106
 20
36.35445165886404
 10
-53.03999579088586
 20
36.3583616121266
 10
-53.0727342292273
 20
36.36242767249096
  0
LINE
  5
3EBDF
330
18
100
AcDbEntity
  8
0
  6
Continuous
 62
     7
370
    15
100
AcDbLine
 10
-50.94867669746946
 20
52.09101557023544
 30
0.0
 11
-52.90492227356748
 21
36.34158365462747
 31
0.0
  0
LINE
  5
3EBE0
330
18
100
AcDbEntity
  8
0
  6
Continuous
 62
     7
370
    15
100
AcDbLine
 10
-56.82366630804773
 20
36.82833210228756
 30
0.0
 11
-53.07273422922754
 21
36.36242767249087
 31
0.0
  0
LWPOLYLINE
  5
3EBE1
330
18
100
AcDbEntity
  8
0
  6
Continuous
 62
     7
370
    15
100
AcDbPolyline
 90
        9
 70
   128
 43
0.0
 10
-53.0727342292273
 20
36.36242767249096
 10
-53.03999579088586
 20
36.3583616121266
 10
-53.00851545098106
 20
36.35445165886404
 10
-52.9795028965911
 20
36.35084701633028
 10
-52.95407330574739
 20
36.34768919577246
 10
-52.93320366417887
 20
36.34509601336509
 10
-52.91769623826621
 20
36.34317028941814
 10
-52.90814680798149
 20
36.34198453310174
 10
-52.90492227356754
 20
36.34158365462753
  0
LINE
  5
3EBE2
330
18
100
AcDbEntity
  8
0
  6
Continuous
 62
     7
370
    15
100
AcDbLine
 10
-53.16305833403962
 20
35.63524308325401
 30
0.0
 11
-53.07273422922754
 21
36.36242767249087
 31
0.0
  0
LWPOLYLINE
  5
3EBE3
330
18
100
AcDbEntity
  8
0
  6
Continuous
 62
     7
370
    15
100
AcDbPolyline
 90
        9
 70
   128
 43
0.0
 10
-52.99524641241049
 20
35.61439905834412
 10
-52.99847065988206
 20
35.61479784069195
 10
-53.00802031156553
 20
35.61598570401443
 10
-53.0235277346139
 20
35.61791142830968
 10
-53.04439718629595
 20
35.62050249987786
 10
-53.06982696667677
 20
35.62366242841006
 10
-53.09883930001652
 20
35.62726496680253
 10
-53.13031963992123
 20
35.63117492006511
 10
-53.16305833403967
 20
35.63524308325407
  0
LINE
  5
3EBE4
330
18
100
AcDbEntity
  8
0
  6
Continuous
 62
     7
370
    15
100
AcDbLine
 10
-52.90492227356748
 20
36.34158365462747
 30
0.0
 11
-52.99524641241032
 21
35.61439905834408
 31
0.0
  0
LWPOLYLINE
  5
3EBE5
330
18
100
AcDbEntity
  8
0
  6
Continuous
 62
     7
370
    15
100
AcDbPolyline
 90
        9
 70
   128
 43
0.0
 10
-56.99147835824828
 20
36.84917610865154
 10
-56.9882537579422
 20
36.8487752381921
 10
-56.97870432765739
 20
36.84758948187573
 10
-56.96319690460899
 20
36.84566375758038
 10
-56.94232739482652
 20
36.84307055914331
 10
-56.91689767219765
 20
36.83991275461494
 10
-56.88788543947672
 20
36.83631020689114
 10
-56.85640484379516
 20
36.83239815080407
 10
-56.82366630804759
 20
36.82833210228756
  0
LINE
  5
3EBE6
330
18
100
AcDbEntity
  8
0
  6
Continuous
 62
     7
370
    15
100
AcDbLine
 10
-57.08180233127632
 20
36.12199153544421
 30
0.0
 11
-56.99147835824863
 21
36.84917610865148
 31
0.0
  0
LWPOLYLINE
  5
3EBE7
330
18
100
AcDbEntity
  8
0
  6
Continuous
 62
     7
370
    15
100
AcDbPolyline
 90
        9
 70
   128
 43
0.0
 10
-56.91399054429573
 20
36.10114749415629
 10
-56.94672881647392
 20
36.10521357473192
 10
-56.97820915672799
 20
36.10912353085931
 10
-57.00722190879438
 20
36.11272814934859
 10
-57.0326513675053
 20
36.11588598307128
 10
-57.05352114085724
 20
36.11847914944909
 10
-57.06902856390565
 20
36.12040487374443
 10
-57.07857799453882
 20
36.12159063292563
 10
-57.08180233127632
 20
36.12199153544421
  0
LINE
  5
3EBE8
330
18
100
AcDbEntity
  8
0
  6
Continuous
 62
     7
370
    15
100
AcDbLine
 10
-56.82366630804773
 20
36.82833210228756
 30
0.0
 11
-56.91399054429595
 21
36.10114749415624
 31
0.0
  0
LWPOLYLINE
  5
3EBE9
330
18
100
AcDbEntity
  8
0
  6
Continuous
 62
     7
370
    15
100
AcDbPolyline
 90
        9
 70
   128
 43
0.0
 10
-57.08180233127632
 20
36.12199153544421
 10
-57.07857799453882
 20
36.12159063292563
 10
-57.06902856390565
 20
36.12040487374443
 10
-57.05352114085724
 20
36.11847914944909
 10
-57.0326513675053
 20
36.11588598307128
 10
-57.00722190879438
 20
36.11272814934859
 10
-56.97820915672799
 20
36.10912353085931
 10
-56.94672881647392
 20
36.10521357473192
 10
-56.91399054429573
 20
36.10114749415629
  0
LWPOLYLINE
  5
3EBEA
330
18
100
AcDbEntity
  8
0
  6
Continuous
 62
     7
370
    15
100
AcDbPolyline
 90
        9
 70
   128
 43
0.0
 10
-53.16305833403967
 20
35.63524308325407
 10
-53.13031963992123
 20
35.63117492006511
 10
-53.09883930001652
 20
35.62726496680253
 10
-53.06982696667677
 20
35.62366242841006
 10
-53.04439718629595
 20
35.62050249987786
 10
-53.0235277346139
 20
35.61791142830968
 10
-53.00802031156553
 20
35.61598570401443
 10
-52.99847065988206
 20
35.61479784069195
 10
-52.99524641241049
 20
35.61439905834412
  0
LINE
  5
3EBEB
330
18
100
AcDbEntity
  8
0
  6
Continuous
 62
     7
370
    15
100
AcDbLine
 10
-56.91399054429595
 20
36.10114749415624
 30
0.0
 11
-53.16305833403962
 21
35.63524308325401
 31
0.0
  0
LINE
  5
3EBEC
330
18
100
AcDbEntity
  8
0
  6
Continuous
 62
     7
370
    15
100
AcDbLine
 10
-51.32481078351066
 20
54.77895080372821
 30
0.0
 11
-53.28261689334357
 21
55.0221308066501
 31
0.0
  0
LINE
  5
3EBED
330
18
100
AcDbEntity
  8
0
  6
Continuous
 62
     7
370
    15
100
AcDbLine
 10
-53.05643876322815
 20
55.2425385054299
 30
0.0
 11
-51.49019419042898
 21
55.04799446418764
 31
0.0
  0
LINE
  5
3EBEE
330
18
100
AcDbEntity
  8
0
  6
Continuous
 62
     7
370
    15
100
AcDbLine
 10
-53.32300939314217
 20
54.99874785282367
 30
0.0
 11
-51.29136638082616
 21
54.74639643954231
 31
0.0
  0
LINE
  5
3EBEF
330
18
100
AcDbEntity
  8
0
  6
Continuous
 62
     7
370
    15
100
AcDbLine
 10
-51.19338768932294
 20
54.62062577921017
 30
0.0
 11
-53.44878020128874
 21
54.90076927707554
 31
0.0
  0
LINE
  5
3EBF0
330
18
100
AcDbEntity
  8
0
  6
Continuous
 62
     7
370
    15
100
AcDbLine
 10
-54.89627270889664
 20
53.71735521832079
 30
0.0
 11
-54.72846091940045
 21
53.6965111802462
 31
0.0
  0
LINE
  5
3EBF1
330
18
100
AcDbEntity
  8
0
  6
Continuous
 62
     7
370
    15
100
AcDbLine
 10
-55.0352329100383
 20
52.59860907567179
 30
0.0
 11
-54.89627270889664
 21
53.71735521832079
 31
0.0
  0
LINE
  5
3EBF2
330
18
100
AcDbEntity
  8
0
  6
Continuous
 62
     7
370
    15
100
AcDbLine
 10
-54.86742098840898
 20
52.57776505076183
 30
0.0
 11
-51.11648848696574
 21
52.11185960831014
 31
0.0
  0
LINE
  5
3EBF3
330
18
100
AcDbEntity
  8
0
  6
Continuous
 62
     7
370
    15
100
AcDbLine
 10
-54.72846091940045
 20
53.6965111802462
 30
0.0
 11
-50.97752871323701
 21
53.23060596643969
 31
0.0
  0
LINE
  5
3EBF4
330
18
100
AcDbEntity
  8
0
  6
Continuous
 62
     7
370
    15
100
AcDbLine
 10
-54.72846091940045
 20
53.6965111802462
 30
0.0
 11
-54.86742098840898
 21
52.57776505076183
 31
0.0
  0
LINE
  5
3EBF5
330
18
100
AcDbEntity
  8
0
  6
Continuous
 62
     7
370
    15
100
AcDbLine
 10
-50.97752871323701
 20
53.23060596643969
 30
0.0
 11
-50.80971692374072
 21
53.209761928365
 31
0.0
  0
LINE
  5
3EBF6
330
18
100
AcDbEntity
  8
0
  6
Continuous
 62
     7
370
    15
100
AcDbLine
 10
-51.11648848696574
 20
52.11185960831014
 30
0.0
 11
-50.97752871323701
 21
53.23060596643969
 31
0.0
  0
LWPOLYLINE
  5
3EBF7
330
18
100
AcDbEntity
  8
0
  6
Continuous
 62
     7
370
    15
100
AcDbPolyline
 90
        9
 70
   128
 43
0.0
 10
-50.94867669746912
 20
52.09101557023547
 10
-50.95190103420574
 20
52.09141647275425
 10
-50.96145046449056
 20
52.09260222907054
 10
-50.97695821487835
 20
52.09452844558041
 10
-50.99782786069031
 20
52.09712056341079
 10
-51.02325744729054
 20
52.10027944854551
 10
-51.05227007146854
 20
52.10388301562261
 10
-51.08375047549166
 20
52.1077934960237
 10
-51.11648848696552
 20
52.11185960831016
  0
LINE
  5
3EBF8
330
18
100
AcDbEntity
  8
0
  6
Continuous
 62
     7
370
    15
100
AcDbLine
 10
-50.80971692374072
 20
53.209761928365
 30
0.0
 11
-50.94867669746946
 21
52.09101557023544
 31
0.0
  0
LINE
  5
3EBF9
330
18
100
AcDbEntity
  8
0
  6
Continuous
 62
     7
370
    15
100
AcDbLine
 10
-55.0352329100383
 20
52.59860907567179
 30
0.0
 11
-54.86742098840898
 21
52.57776505076183
 31
0.0
  0
LINE
  5
3EBFA
330
18
100
AcDbEntity
  8
0
  6
Continuous
 62
     7
370
    15
100
AcDbLine
 10
-54.86742098840898
 20
52.57776505076183
 30
0.0
 11
-52.9064825918212
 21
52.33419600057061
 31
0.0
  0
LINE
  5
3EBFB
330
18
100
AcDbEntity
  8
0
  6
Continuous
 62
     7
370
    15
100
AcDbLine
 10
-52.29117206303346
 20
52.2577677558873
 30
0.0
 11
-51.11648848696574
 21
52.11185960831014
 31
0.0
  0
LWPOLYLINE
  5
3EBFC
330
18
100
AcDbEntity
  8
0
  6
Continuous
 62
     7
370
    15
100
AcDbPolyline
 90
        9
 70
   128
 43
0.0
 10
-51.11648848696552
 20
52.11185960831016
 10
-51.08375047549166
 20
52.1077934960237
 10
-51.05227007146854
 20
52.10388301562261
 10
-51.02325744729054
 20
52.10027944854551
 10
-50.99782786069031
 20
52.09712056341079
 10
-50.97695821487835
 20
52.09452844558041
 10
-50.96145046449056
 20
52.09260222907054
 10
-50.95190103420574
 20
52.09141647275425
 10
-50.94867669746912
 20
52.09101557023547
  0
LINE
  5
3EBFD
330
18
100
AcDbEntity
  8
0
  6
Continuous
 62
     7
370
    15
100
AcDbLine
 10
-53.28261689334357
 20
55.0221308066501
 30
0.0
 11
-53.28609081669867
 21
54.99416222974011
 31
0.0
  0
LINE
  5
3EBFE
330
18
100
AcDbEntity
  8
0
  6
Continuous
 62
     7
370
    15
100
AcDbLine
 10
-51.32828495440517
 20
54.75098206297428
 30
0.0
 11
-51.32481078351066
 21
54.77895080372821
 31
0.0
  0
LINE
  5
3EBFF
330
18
100
AcDbEntity
  8
0
  6
Continuous
 62
     7
370
    15
100
AcDbLine
 10
-53.05643876322815
 20
55.2425385054299
 30
0.0
 11
-53.28261689334357
 21
55.0221308066501
 31
0.0
  0
LINE
  5
3EC00
330
18
100
AcDbEntity
  8
0
  6
Continuous
 62
     7
370
    15
100
AcDbLine
 10
-51.32481078351066
 20
54.77895080372821
 30
0.0
 11
-51.49019419042898
 21
55.04799446418764
 31
0.0
  0
LINE
  5
3EC01
330
18
100
AcDbEntity
  8
0
  6
Continuous
 62
     7
370
    15
100
AcDbLine
 10
-53.32300939314217
 20
54.99874785282367
 30
0.0
 11
-53.44878020128874
 21
54.90076927707554
 31
0.0
  0
LINE
  5
3EC02
330
18
100
AcDbEntity
  8
0
  6
Continuous
 62
     7
370
    15
100
AcDbLine
 10
-51.19338768932294
 20
54.62062577921017
 30
0.0
 11
-51.29136638082616
 21
54.74639643954231
 31
0.0
  0
LINE
  5
3EC03
330
18
100
AcDbEntity
  8
0
  6
Continuous
 62
     7
370
    15
100
AcDbLine
 10
-53.44878020128874
 20
54.90076927707554
 30
0.0
 11
-53.6155321102064
 21
53.55827381143723
 31
0.0
  0
LINE
  5
3EC04
330
18
100
AcDbEntity
  8
0
  6
Continuous
 62
     7
370
    15
100
AcDbLine
 10
-51.36013985894533
 20
53.27813028186108
 30
0.0
 11
-51.19338768932294
 21
54.62062577921017
 31
0.0
  0
LINE
  5
3EC05
330
18
100
AcDbEntity
  8
0
  6
Continuous
 62
     7
370
    15
100
AcDbLine
 10
-50.03717510224754
 20
79.41847197711616
 30
0.0
 11
-53.04032869496936
 21
55.24053751363158
 31
0.0
  0
LINE
  5
3EC06
330
18
100
AcDbEntity
  8
0
  6
Continuous
 62
     7
370
    15
100
AcDbLine
 10
-51.50630425868789
 20
55.04999545598593
 30
0.0
 11
-48.50315010998059
 21
79.22792972253612
 31
0.0
  0
LINE
  5
3EC07
330
18
100
AcDbEntity
  8
0
  6
Continuous
 62
     7
370
    15
100
AcDbLine
 10
-46.95445994943085
 20
83.68418382425909
 30
0.0
 11
-49.77281822306437
 21
82.27500415930462
 31
0.0
  0
LINE
  5
3EC08
330
18
100
AcDbEntity
  8
0
  6
Continuous
 62
     7
370
    15
100
AcDbLine
 10
-49.77281822306437
 20
82.27500415930462
 30
0.0
 11
-49.77281822306437
 21
80.07668443193152
 31
0.0
  0
LINE
  5
3EC09
330
18
100
AcDbEntity
  8
0
  6
Continuous
 62
     7
370
    15
100
AcDbLine
 10
-49.77281822306437
 20
80.07668443193152
 30
0.0
 11
-46.95445994943085
 21
78.66750582613855
 31
0.0
  0
LINE
  5
3EC0A
330
18
100
AcDbEntity
  8
0
  6
Continuous
 62
     7
370
    15
100
AcDbLine
 10
-46.95445994943085
 20
78.66750582613855
 30
0.0
 11
-45.67726475730952
 21
78.66750582613855
 31
0.0
  0
LINE
  5
3EC0B
330
18
100
AcDbEntity
  8
0
  6
Continuous
 62
     7
370
    15
100
AcDbLine
 10
-46.95445994943085
 20
83.68418382425909
 30
0.0
 11
-45.67726475730952
 21
83.68418382425909
 31
0.0
  0
LINE
  5
3EC0C
330
18
100
AcDbEntity
  8
0
  6
Continuous
 62
     7
370
    15
100
AcDbLine
 10
-45.67726475730952
 20
78.66750582613855
 30
0.0
 11
-45.2826941979624
 21
78.66750582613855
 31
0.0
  0
LINE
  5
3EC0D
330
18
100
AcDbEntity
  8
0
  6
Continuous
 62
     7
370
    15
100
AcDbLine
 10
-45.2826941979624
 20
83.68418382425909
 30
0.0
 11
-45.2826941979624
 21
78.66750582613855
 31
0.0
  0
LINE
  5
3EC0E
330
18
100
AcDbEntity
  8
0
  6
Continuous
 62
     7
370
    15
100
AcDbLine
 10
-45.67726475730952
 20
83.68418382425909
 30
0.0
 11
-45.2826941979624
 21
83.68418382425909
 31
0.0
  0
LINE
  5
3EC0F
330
18
100
AcDbEntity
  8
0
  6
Continuous
 62
     7
370
    15
100
AcDbLine
 10
-45.67726475730952
 20
83.68418382425909
 30
0.0
 11
-45.67726475730952
 21
78.66750582613855
 31
0.0
  0
CIRCLE
  5
3EC10
330
18
100
AcDbEntity
  8
0
  6
Continuous
 62
     7
370
    15
100
AcDbCircle
 10
-49.04004412635075
 20
81.17584409937013
 30
0.0
 40
0.2818367885533902
  0
CIRCLE
  5
3EC11
330
18
100
AcDbEntity
  8
0
  6
Continuous
 62
     7
370
    15
100
AcDbCircle
 10
-49.0400448276483
 20
81.17584407051015
 30
0.0
 40
0.2466950066587558
  0
LINE
  5
3EC12
330
18
100
AcDbEntity
  8
0
  6
Continuous
 62
     7
370
    15
100
AcDbLine
 10
-48.76222792293984
 20
79.37371063610232
 30
0.0
 11
-48.74288510553168
 21
79.52943968339963
 31
0.0
  0
LINE
  5
3EC13
330
18
100
AcDbEntity
  8
0
  6
Continuous
 62
     7
370
    15
100
AcDbLine
 10
-49.73096202468312
 20
79.65216885219678
 30
0.0
 11
-49.75030484209208
 21
79.49643980489918
 31
0.0
  0
LWPOLYLINE
  5
3EC14
330
18
100
AcDbEntity
  8
0
  6
Continuous
 62
     7
370
    15
100
AcDbPolyline
 90
        3
 70
   128
 43
0.0
 10
-49.73096202468318
 20
79.65216885219681
 10
-49.7253561416542
 20
79.69729490369354
 10
-49.72251252599861
 20
79.7201896001772
  0
LWPOLYLINE
  5
3EC15
330
18
100
AcDbEntity
  8
0
  6
Continuous
 62
     7
370
    15
100
AcDbPolyline
 90
       11
 70
   128
 43
0.0
 10
-48.74288510553128
 20
79.52943968339972
 10
-48.81153035897273
 20
79.53796672425534
 10
-48.89961217939845
 20
79.54890735167211
 10
-49.00310538237426
 20
79.56176192941035
 10
-49.11728130982308
 20
79.57594371090533
 10
-49.23692310334513
 20
79.59080485744857
 10
-49.35656594862908
 20
79.60566587896827
 10
-49.47074187573026
 20
79.61984765759822
 10
-49.57423507905295
 20
79.6327022382016
 10
-49.66231584771833
 20
79.64364299064192
 10
-49.73096202468318
 20
79.65216885219681
  0
LINE
  5
3EC16
330
18
100
AcDbEntity
  8
0
  6
Continuous
 62
     7
370
    15
100
AcDbLine
 10
-48.73911030119126
 20
79.55983066576209
 30
0.0
 11
-48.74288510553168
 21
79.52943968339963
 31
0.0
  0
LWPOLYLINE
  5
3EC17
330
18
100
AcDbEntity
  8
0
  6
Continuous
 62
     7
370
    15
100
AcDbPolyline
 90
       12
 70
   128
 43
0.0
 10
-49.72251252599861
 20
79.7201896001772
 10
-49.70237772671876
 20
79.71768825413079
 10
-49.65676151316029
 20
79.71202259907901
 10
-49.58811520865549
 20
79.70349568897677
 10
-49.50013179156076
 20
79.6925665423162
 10
-49.39754018319928
 20
79.6798240221149
 10
-49.28585794943401
 20
79.66595186587937
 10
-49.17109110441709
 20
79.65169698959073
 10
-49.05940887065276
 20
79.63782483335529
 10
-48.95681713440112
 20
79.62508126174163
 10
-48.86883384554332
 20
79.61415316935841
 10
-48.84078787667707
 20
79.6106694343473
  0
LWPOLYLINE
  5
3EC18
330
18
100
AcDbEntity
  8
0
  6
Continuous
 62
     7
370
    15
100
AcDbPolyline
 90
       18
 70
   128
 43
0.0
 10
-49.95868812151775
 20
79.52232337136547
 10
-49.9459943869374
 20
79.52074616286387
 10
-49.90837237209203
 20
79.51607381474275
 10
-49.84718064822903
 20
79.50847259617129
 10
-49.76463292072324
 20
79.49822009780198
 10
-49.66371121281321
 20
79.48568379715585
 10
-49.54806336549513
 20
79.47131968470404
 10
-49.42186911594723
 20
79.4556448397
 10
-49.28968957818006
 20
79.4392269508042
 10
-49.15630104515028
 20
79.42265871007177
 10
-49.02652638190926
 20
79.40653886106225
 10
-48.90505554587758
 20
79.39145140926689
 10
-48.7962783136735
 20
79.37794011490916
 10
-48.70412579603049
 20
79.36649366508461
 10
-48.63192938611508
 20
79.3575255273928
 10
-48.58229770408979
 20
79.35136119114346
 10
-48.55702503421401
 20
79.34822159250862
 10
-48.55384516813649
 20
79.34782700873097
  0
LWPOLYLINE
  5
3EC19
330
18
100
AcDbEntity
  8
0
  6
Continuous
 62
     7
370
    15
100
AcDbPolyline
 90
       18
 70
   128
 43
0.0
 10
-48.5031501099802
 20
79.22792972253621
 10
-48.51620962784881
 20
79.22955198001727
 10
-48.5549443374477
 20
79.23436294344196
 10
-48.61803490565591
 20
79.24219903387615
 10
-48.70333307625035
 20
79.25279495180629
 10
-48.80793451897933
 20
79.26578655861033
 10
-48.92827547153292
 20
79.28073428785473
 10
-49.06025912832863
 20
79.2971280298591
 10
-49.19939166904041
 20
79.31441003171366
 10
-49.34093341495054
 20
79.33199061366147
 10
-49.48006490424956
 20
79.34927274340456
 10
-49.61204961280649
 20
79.36566636038526
 10
-49.73239056535916
 20
79.38061408962965
 10
-49.83699108456474
 20
79.39360687573454
 10
-49.92228965440887
 20
79.40420167813392
 10
-49.98538022226944
 20
79.41203776570318
 10
-50.02411505975598
 20
79.41684978054031
 10
-50.03717510224754
 20
79.41847197711609
  0
LINE
  5
3EC1A
330
18
100
AcDbEntity
  8
0
  6
Continuous
 62
     7
370
    15
100
AcDbLine
 10
-49.55530805996279
 20
79.73470081958106
 30
0.0
 11
-49.55820507089796
 21
79.71137749860869
 31
0.0
  0
SPLINE
  5
3EC1B
330
18
100
AcDbEntity
  8
0
  6
Continuous
 62
     7
370
    15
100
AcDbSpline
210
0.0
220
0.0
230
1.0
 70
     8
 71
     3
 72
     9
 73
     5
 74
     0
 42
0.0000000001
 43
0.0000000001
 40
0.0724018957586222
 40
0.0724018957586222
 40
0.0724018957586222
 40
0.0724018957586222
 40
0.5344492675938265
 40
1.0
 40
1.0
 40
1.0
 40
1.0
 10
-48.91783605592587
 20
79.64919350945456
 30
0.0
 10
-48.9706231450507
 20
79.64247350149247
 30
0.0
 10
-49.07612903274383
 20
79.63240949718192
 30
0.0
 10
-49.17469151437839
 20
79.6731309647532
 30
0.0
 10
-49.22415888101347
 20
79.69356859713485
 30
0.0
  0
SPLINE
  5
3EC1C
330
18
100
AcDbEntity
  8
0
  6
Continuous
 62
     7
370
    15
100
AcDbSpline
210
0.0
220
0.0
230
1.0
 70
     8
 71
     3
 72
     9
 73
     5
 74
     0
 42
0.0000000001
 43
0.0000000001
 40
0.0
 40
0.0
 40
0.0
 40
0.0
 40
0.5344463046685081
 40
1.0
 40
1.0
 40
1.0
 40
1.0
 10
-49.22415888101347
 20
79.69356859713485
 30
0.0
 10
-49.28525952970392
 20
79.6854863351482
 30
0.0
 10
-49.39958466986627
 20
79.67036365225926
 30
0.0
 10
-49.50584034003856
 20
79.71426321643722
 30
0.0
 10
-49.5553080599374
 20
79.73470082076364
 30
0.0
  0
LINE
  5
3EC1D
330
18
100
AcDbEntity
  8
0
  6
Continuous
 62
     7
370
    15
100
AcDbLine
 10
-49.22415888220729
 20
79.69356859632362
 30
0.0
 11
-49.21143645112002
 21
79.79599365173266
 31
0.0
  0
LINE
  5
3EC1E
330
18
100
AcDbEntity
  8
0
  6
Continuous
 62
     7
370
    15
100
AcDbLine
 10
-49.52919856649106
 20
79.94489870742905
 30
0.0
 11
-49.51075268017698
 21
79.94565170986516
 31
0.0
  0
LINE
  5
3EC1F
330
18
100
AcDbEntity
  8
0
  6
Continuous
 62
     7
370
    15
100
AcDbLine
 10
-49.55530805996279
 20
79.73470081958106
 30
0.0
 11
-49.52919856649106
 21
79.94489870742905
 31
0.0
  0
LINE
  5
3EC20
330
18
100
AcDbEntity
  8
0
  6
Continuous
 62
     7
370
    15
100
AcDbLine
 10
-49.95868812151747
 20
79.5223233713655
 30
0.0
 11
-50.03717510224754
 21
79.41847197711616
 31
0.0
  0
LINE
  5
3EC21
330
18
100
AcDbEntity
  8
0
  6
Continuous
 62
     7
370
    15
100
AcDbLine
 10
-48.50315010998059
 20
79.22792972253612
 30
0.0
 11
-48.55384516813649
 21
79.34782700873097
 31
0.0
  0
LINE
  5
3EC22
330
18
100
AcDbEntity
  8
0
  6
Continuous
 62
     7
370
    15
100
AcDbLine
 10
-48.90627519928372
 20
79.61880378719275
 30
0.0
 11
-48.89668424529663
 21
79.62285920531474
 31
0.0
  0
LINE
  5
3EC23
330
18
100
AcDbEntity
  8
0
  6
Continuous
 62
     7
370
    15
100
AcDbLine
 10
-49.55898155225947
 20
79.70512377936967
 30
0.0
 11
-49.55067385456766
 21
79.69884506827731
 31
0.0
  0
LINE
  5
3EC2A
330
18
100
AcDbEntity
  8
0
  6
Continuous
 62
     7
370
    15
100
AcDbLine
 10
-123.9851278187206
 20
27.5307081875997
 30
0.0
 11
-125.8552545425043
 21
30.81539773199002
 31
0.0
  0
LWPOLYLINE
  5
3EC2B
330
18
100
AcDbEntity
  8
0
  6
Continuous
 62
     7
370
    15
100
AcDbPolyline
 90
        9
 70
   128
 43
0.0
 10
-125.8552545425042
 20
30.81539773198995
 10
-125.8715788381221
 20
30.84406634578437
 10
-125.8872739847962
 20
30.87163375237097
 10
-125.901737844436
 20
30.89704025809307
 10
-125.9144177250463
 20
30.91930861021563
 10
-125.9248217008754
 20
30.93758441258723
 10
-125.9325529155605
 20
30.95116443111286
 10
-125.93731571577
 20
30.95952640460678
 10
-125.9389216778905
 20
30.96235053009733
  0
LWPOLYLINE
  5
3EC2C
330
18
100
AcDbEntity
  8
0
  6
Continuous
 62
     7
370
    15
100
AcDbPolyline
 90
        9
 70
   128
 43
0.0
 10
-123.9014607199006
 20
27.38375552011185
 10
-123.9030686740157
 20
27.38657891413148
 10
-123.9078294464421
 20
27.39494149125559
 10
-123.9155606611273
 20
27.40852150978121
 10
-123.925966694749
 20
27.42679680501516
 10
-123.9386445175669
 20
27.44906566427533
 10
-123.9531104586721
 20
27.47447175812819
 10
-123.9688056081256
 20
27.50203916393764
 10
-123.9851278187207
 20
27.53070818759993
  0
LINE
  5
3EC2D
330
18
100
AcDbEntity
  8
0
  6
Continuous
 62
     7
370
    15
100
AcDbLine
 10
-123.3483327655611
 20
27.89326574472478
 30
0.0
 11
-123.9851278187206
 21
27.5307081875997
 31
0.0
  0
LWPOLYLINE
  5
3EC2E
330
18
100
AcDbEntity
  8
0
  6
Continuous
 62
     7
370
    15
100
AcDbPolyline
 90
        9
 70
   128
 43
0.0
 10
-123.9851278187207
 20
27.53070818759993
 10
-123.9688056081256
 20
27.50203916393764
 10
-123.9531104586721
 20
27.47447175812819
 10
-123.9386445175669
 20
27.44906566427533
 10
-123.925966694749
 20
27.42679680501516
 10
-123.9155606611273
 20
27.40852150978121
 10
-123.9078294464421
 20
27.39494149125559
 10
-123.9030686740157
 20
27.38657891413148
 10
-123.9014607199006
 20
27.38375552011185
  0
LINE
  5
3EC2F
330
18
100
AcDbEntity
  8
0
  6
Continuous
 62
     7
370
    15
100
AcDbLine
 10
-123.9014607199006
 20
27.38375552011186
 30
0.0
 11
-123.2646655979435
 21
27.74631282077717
 31
0.0
  0
LWPOLYLINE
  5
3EC30
330
18
100
AcDbEntity
  8
0
  6
Continuous
 62
     7
370
    15
100
AcDbPolyline
 90
        9
 70
   128
 43
0.0
 10
-123.2646655979435
 20
27.74631282077749
 10
-123.2662736236353
 20
27.74913647047849
 10
-123.2710343932827
 20
27.75749904838071
 10
-123.2787656079678
 20
27.77107906690633
 10
-123.2891715700127
 20
27.78935410645802
 10
-123.3018494671866
 20
27.81162322062244
 10
-123.3163132968169
 20
27.83702962985279
 10
-123.3320104833891
 20
27.86459646538054
 10
-123.3483327655612
 20
27.89326574472493
  0
LINE
  5
3EC31
330
18
100
AcDbEntity
  8
0
  6
Continuous
 62
     7
370
    15
100
AcDbLine
 10
-125.302126598279
 20
31.32490799273199
 30
0.0
 11
-125.9389216778906
 21
30.96235053009748
 31
0.0
  0
LWPOLYLINE
  5
3EC32
330
18
100
AcDbEntity
  8
0
  6
Continuous
 62
     7
370
    15
100
AcDbPolyline
 90
        9
 70
   128
 43
0.0
 10
-125.9389216778905
 20
30.96235053009733
 10
-125.93731571577
 20
30.95952640460678
 10
-125.9325529155605
 20
30.95116443111286
 10
-125.9248217008754
 20
30.93758441258723
 10
-125.9144177250463
 20
30.91930861021563
 10
-125.901737844436
 20
30.89704025809307
 10
-125.8872739847962
 20
30.87163375237097
 10
-125.8715788381221
 20
30.84406634578437
 10
-125.8552545425042
 20
30.81539773198995
  0
LINE
  5
3EC33
330
18
100
AcDbEntity
  8
0
  6
Continuous
 62
     7
370
    15
100
AcDbLine
 10
-125.8552545425043
 20
30.81539773199002
 30
0.0
 11
-125.2184594563355
 21
31.17795516049613
 31
0.0
  0
LWPOLYLINE
  5
3EC34
330
18
100
AcDbEntity
  8
0
  6
Continuous
 62
     7
370
    15
100
AcDbPolyline
 90
        9
 70
   128
 43
0.0
 10
-125.2184594563355
 20
31.17795516049637
 10
-125.2347817120551
 20
31.20662434534954
 10
-125.2504768587292
 20
31.23419175193622
 10
-125.264942746152
 20
31.25959765402801
 10
-125.2776206075372
 20
31.28186664035094
 10
-125.288026605371
 20
31.30014180774501
 10
-125.2957578208339
 20
31.31372182904917
 10
-125.3005185904813
 20
31.3220844069513
 10
-125.3021265982789
 20
31.32490799273197
  0
LINE
  5
3EC35
330
18
100
AcDbEntity
  8
0
  6
Continuous
 62
     7
370
    15
100
AcDbLine
 10
-123.3483327655611
 20
27.89326574472478
 30
0.0
 11
-125.2184594563355
 21
31.17795516049613
 31
0.0
  0
LINE
  5
3EC36
330
18
100
AcDbEntity
  8
0
  6
Continuous
 62
     7
370
    15
100
AcDbLine
 10
-115.0726021825091
 20
37.09206220571349
 30
0.0
 11
-125.302126598279
 21
31.32490799273199
 31
0.0
  0
LWPOLYLINE
  5
3EC37
330
18
100
AcDbEntity
  8
0
  6
Continuous
 62
     7
370
    15
100
AcDbPolyline
 90
        9
 70
   128
 43
0.0
 10
-125.3021265982789
 20
31.32490799273197
 10
-125.3005185904813
 20
31.3220844069513
 10
-125.2957578208339
 20
31.31372182904917
 10
-125.288026605371
 20
31.30014180774501
 10
-125.2776206075372
 20
31.28186664035094
 10
-125.264942746152
 20
31.25959765402801
 10
-125.2504768587292
 20
31.23419175193622
 10
-125.2347817120551
 20
31.20662434534954
 10
-125.2184594563355
 20
31.17795516049637
  0
LINE
  5
3EC38
330
18
100
AcDbEntity
  8
0
  6
Continuous
 62
     7
370
    15
100
AcDbLine
 10
-125.2184594563355
 20
31.17795516049613
 30
0.0
 11
-114.9889350856903
 21
36.94510953466898
 31
0.0
  0
LINE
  5
3EC39
330
18
100
AcDbEntity
  8
0
  6
Continuous
 62
     7
370
    15
100
AcDbLine
 10
-124.632789494851
 20
30.14928548169719
 30
0.0
 11
-114.4032651148698
 21
35.91643982252043
 31
0.0
  0
LINE
  5
3EC3A
330
18
100
AcDbEntity
  8
0
  6
Continuous
 62
     7
370
    15
100
AcDbLine
 10
-124.632789494851
 20
30.14928548169719
 30
0.0
 11
-125.2184594563355
 21
31.17795516049613
 31
0.0
  0
LINE
  5
3EC3B
330
18
100
AcDbEntity
  8
0
  6
Continuous
 62
     7
370
    15
100
AcDbLine
 10
-123.3483327655611
 20
27.89326574472478
 30
0.0
 11
-124.3260113637763
 21
29.61045817607887
 31
0.0
  0
LINE
  5
3EC3C
330
18
100
AcDbEntity
  8
0
  6
Continuous
 62
     7
370
    15
100
AcDbLine
 10
-113.1188072976111
 20
33.6604201173963
 30
0.0
 11
-123.3483327655611
 21
27.89326574472478
 31
0.0
  0
LINE
  5
3EC3D
330
18
100
AcDbEntity
  8
0
  6
Continuous
 62
     7
370
    15
100
AcDbLine
 10
-124.3260113637763
 20
29.61045817607887
 30
0.0
 11
-114.0964854194727
 21
35.37761281696631
 31
0.0
  0
LWPOLYLINE
  5
3EC3E
330
18
100
AcDbEntity
  8
0
  6
Continuous
 62
     7
370
    15
100
AcDbPolyline
 90
        9
 70
   128
 43
0.0
 10
-123.3483327655612
 20
27.89326574472493
 10
-123.3320104833891
 20
27.86459646538054
 10
-123.3163132968169
 20
27.83702962985279
 10
-123.3018494671866
 20
27.81162322062244
 10
-123.2891715700127
 20
27.78935410645802
 10
-123.2787656079678
 20
27.77107906690633
 10
-123.2710343932827
 20
27.75749904838071
 10
-123.2662736236353
 20
27.74913647047849
 10
-123.2646655979435
 20
27.74631282077749
  0
LINE
  5
3EC3F
330
18
100
AcDbEntity
  8
0
  6
Continuous
 62
     7
370
    15
100
AcDbLine
 10
-123.2646655979435
 20
27.74631282077717
 30
0.0
 11
-113.0351401622247
 21
33.51346731928884
 31
0.0
  0
LINE
  5
3EC40
330
18
100
AcDbEntity
  8
0
  6
Continuous
 62
     7
370
    15
100
AcDbLine
 10
-123.9851278187206
 20
27.5307081875997
 30
0.0
 11
-131.6266729456594
 21
23.18001789673622
 31
0.0
  0
LINE
  5
3EC41
330
18
100
AcDbEntity
  8
0
  6
Continuous
 62
     7
370
    15
100
AcDbLine
 10
-131.6266729456594
 20
23.18001789673622
 30
0.0
 11
-132.2200867326767
 21
24.2222891002621
 31
0.0
  0
LINE
  5
3EC42
330
18
100
AcDbEntity
  8
0
  6
Continuous
 62
     7
370
    15
100
AcDbLine
 10
-125.9389216778906
 20
30.96235053009748
 30
0.0
 11
-133.9413241323494
 21
26.40620837854979
 31
0.0
  0
LINE
  5
3EC43
330
18
100
AcDbEntity
  8
0
  6
Continuous
 62
     7
370
    15
100
AcDbLine
 10
-131.5430058460615
 20
23.03306522646966
 30
0.0
 11
-123.9014607199006
 21
27.38375552011186
 31
0.0
  0
LINE
  5
3EC44
330
18
100
AcDbEntity
  8
0
  6
Continuous
 62
     7
370
    15
100
AcDbLine
 10
-131.5987846852312
 20
23.13103382160978
 30
0.0
 11
-131.7457378676402
 21
23.04736658163802
 31
0.0
  0
LINE
  5
3EC45
330
18
100
AcDbEntity
  8
0
  6
Continuous
 62
     7
370
    15
100
AcDbLine
 10
-132.3986015508341
 20
24.19405645639038
 30
0.0
 11
-131.7457378676402
 21
23.04736658163802
 31
0.0
  0
LINE
  5
3EC46
330
18
100
AcDbEntity
  8
0
  6
Continuous
 62
     7
370
    15
100
AcDbLine
 10
-133.5804678584592
 20
26.61166073982233
 30
0.0
 11
-133.2870207853066
 21
26.09625050892166
 31
0.0
  0
LINE
  5
3EC47
330
18
100
AcDbEntity
  8
0
  6
Continuous
 62
     7
370
    15
100
AcDbLine
 10
-131.6974331410272
 20
22.96252279747426
 30
0.0
 11
-131.8443842827598
 21
22.87885612578163
 31
0.0
  0
LWPOLYLINE
  5
3EC48
330
18
100
AcDbEntity
  8
0
  6
Continuous
 62
     7
370
    15
100
AcDbPolyline
 90
        9
 70
   128
 43
0.0
 10
-131.8443842827598
 20
22.87885612578174
 10
-131.8426656148656
 20
22.87583351159547
 10
-131.8411580240899
 20
22.87318805887871
 10
-131.8398730821507
 20
22.87092971478094
 10
-131.8388136467888
 20
22.86906866612179
 10
-131.8379841753979
 20
22.86761300957457
 10
-131.8373887062495
 20
22.8665693018289
 10
-131.8370324584788
 20
22.86594048134285
 10
-131.836912207322
 20
22.86573074452376
  0
LINE
  5
3EC49
330
18
100
AcDbEntity
  8
0
  6
Continuous
 62
     7
370
    15
100
AcDbLine
 10
-131.836912207322
 20
22.86573074452353
 30
0.0
 11
-131.5430058460615
 21
23.03306522646966
 31
0.0
  0
LWPOLYLINE
  5
3EC4A
330
18
100
AcDbEntity
  8
0
  6
Continuous
 62
     7
370
    15
100
AcDbPolyline
 90
        9
 70
   128
 43
0.0
 10
-131.7457378676401
 20
23.04736658163799
 10
-131.7384570166921
 20
23.03457886630036
 10
-131.731301310983
 20
23.02201050154193
 10
-131.7243921390073
 20
23.00987530831337
 10
-131.7178494648362
 20
22.99838199792694
 10
-131.7117831499962
 20
22.98772673548264
 10
-131.7062970210372
 20
22.97809198619083
 10
-131.701485693407
 20
22.96964301696716
 10
-131.6974331410271
 20
22.96252279747439
  0
LWPOLYLINE
  5
3EC4B
330
18
100
AcDbEntity
  8
0
  6
Continuous
 62
     7
370
    15
100
AcDbPolyline
 90
        9
 70
   128
 43
0.0
 10
-131.5430058460614
 20
23.03306522646956
 10
-131.5440778169165
 20
23.03494749074236
 10
-131.5472516628295
 20
23.04052254082528
 10
-131.5524078923831
 20
23.04957548523681
 10
-131.5593438421855
 20
23.06175922816445
 10
-131.5677964514887
 20
23.07660511351331
 10
-131.5774389565983
 20
23.09354254828557
 10
-131.5879024382113
 20
23.11192098901981
 10
-131.5987846852313
 20
23.13103382161017
  0
LINE
  5
3EC4C
330
18
100
AcDbEntity
  8
0
  6
Continuous
 62
     7
370
    15
100
AcDbLine
 10
-132.4888165946952
 20
23.55503343348582
 30
0.0
 11
-132.3664079394675
 21
23.34003681741215
 31
0.0
  0
LINE
  5
3EC4D
330
18
100
AcDbEntity
  8
0
  6
Continuous
 62
     7
370
    15
100
AcDbLine
 10
-132.3664079394675
 20
23.34003681741215
 30
0.0
 11
-132.5623455604328
 21
23.22848066682894
 31
0.0
  0
LINE
  5
3EC4E
330
18
100
AcDbEntity
  8
0
  6
Continuous
 62
     7
370
    15
100
AcDbLine
 10
-132.5623455604328
 20
23.22848066682894
 30
0.0
 11
-132.520510921887
 21
23.15500436076487
 31
0.0
  0
LINE
  5
3EC4F
330
18
100
AcDbEntity
  8
0
  6
Continuous
 62
     7
370
    15
100
AcDbLine
 10
-132.1286378602294
 20
23.37811660301506
 30
0.0
 11
-132.520510921887
 21
23.15500436076487
 31
0.0
  0
LINE
  5
3EC50
330
18
100
AcDbEntity
  8
0
  6
Continuous
 62
     7
370
    15
100
AcDbLine
 10
-132.1286378602294
 20
23.37811660301506
 30
0.0
 11
-131.8443842827598
 21
22.87885612578163
 31
0.0
  0
LINE
  5
3EC51
330
18
100
AcDbEntity
  8
0
  6
Continuous
 62
     7
370
    15
100
AcDbLine
 10
-131.9613035206588
 20
23.08421075033937
 30
0.0
 11
-132.3531767254703
 21
22.8610990194538
 31
0.0
  0
LWPOLYLINE
  5
3EC52
330
18
100
AcDbEntity
  8
0
  6
Continuous
 62
     7
370
    15
100
AcDbPolyline
 90
        9
 70
   128
 43
0.0
 10
-132.3531767254704
 20
22.86109901945394
 10
-132.3858231873369
 20
22.91843649849882
 10
-132.4172134814627
 20
22.97357131445082
 10
-132.4461433257764
 20
23.02438406965884
 10
-132.4715010113106
 20
23.068921217122
 10
-132.492311041435
 20
23.10547237786983
 10
-132.5077734715829
 20
23.13263241769965
 10
-132.517297049998
 20
23.14935699966661
 10
-132.5205109218871
 20
23.15500436076519
  0
LWPOLYLINE
  5
3EC53
330
18
100
AcDbEntity
  8
0
  6
Continuous
 62
     7
370
    15
100
AcDbPolyline
 90
        6
 70
   128
 43
0.0
 10
-132.5623455604328
 20
23.22848066682889
 10
-132.5699131071294
 20
23.24177437207371
 10
-132.5917072767053
 20
23.28005106940466
 10
-132.6250953393685
 20
23.33869518445303
 10
-132.6660531282226
 20
23.41063294304901
 10
-132.6993802657921
 20
23.46916795606573
  0
LINE
  5
3EC54
330
18
100
AcDbEntity
  8
0
  6
Continuous
 62
     7
370
    15
100
AcDbLine
 10
-131.836912207322
 20
22.86573074452353
 30
0.0
 11
-132.2287873068766
 21
22.64261793477125
 31
0.0
  0
LINE
  5
3EC55
330
18
100
AcDbEntity
  8
0
  6
Continuous
 62
     7
370
    15
100
AcDbLine
 10
-132.2287873068766
 20
22.64261793477125
 30
0.0
 11
-132.3531767254703
 21
22.8610990194538
 31
0.0
  0
CIRCLE
  5
3EC56
330
18
100
AcDbEntity
  8
0
  6
Continuous
 62
     7
370
    15
100
AcDbCircle
 10
-133.6386792811605
 20
24.66324940119169
 30
0.0
 40
0.28183582860642
  0
LINE
  5
3EC57
330
18
100
AcDbEntity
  8
0
  6
Continuous
 62
     7
370
    15
100
AcDbLine
 10
-133.5541284105278
 20
24.52233282747929
 30
0.0
 11
-133.7232299266864
 21
24.52233282747929
 31
0.0
  0
LINE
  5
3EC58
330
18
100
AcDbEntity
  8
0
  6
Continuous
 62
     7
370
    15
100
AcDbLine
 10
-133.7232299266864
 20
24.8041704539744
 30
0.0
 11
-133.5541284105278
 21
24.8041704539744
 31
0.0
  0
LINE
  5
3EC59
330
18
100
AcDbEntity
  8
0
  6
Continuous
 62
     7
370
    15
100
AcDbLine
 10
-133.4789719742938
 20
24.66324952528962
 30
0.0
 11
-133.5541284105278
 21
24.52233282747929
 31
0.0
  0
LINE
  5
3EC5A
330
18
100
AcDbEntity
  8
0
  6
Continuous
 62
     7
370
    15
100
AcDbLine
 10
-133.5541284105278
 20
24.8041704539744
 30
0.0
 11
-133.4789719742938
 21
24.66324952528962
 31
0.0
  0
LINE
  5
3EC5B
330
18
100
AcDbEntity
  8
0
  6
Continuous
 62
     7
370
    15
100
AcDbLine
 10
-133.7232299266864
 20
24.52233282747929
 30
0.0
 11
-133.7983861002934
 21
24.66324952528962
 31
0.0
  0
LINE
  5
3EC5C
330
18
100
AcDbEntity
  8
0
  6
Continuous
 62
     7
370
    15
100
AcDbLine
 10
-133.7983861002934
 20
24.66324952528962
 30
0.0
 11
-133.7232299266864
 21
24.8041704539744
 31
0.0
  0
LINE
  5
3EC5D
330
18
100
AcDbEntity
  8
0
  6
Continuous
 62
     7
370
    15
100
AcDbLine
 10
-137.6407478677581
 20
27.48160885519864
 30
0.0
 11
-137.6407478677581
 21
21.84489442625503
 31
0.0
  0
LINE
  5
3EC5E
330
18
100
AcDbEntity
  8
0
  6
Continuous
 62
     7
370
    15
100
AcDbLine
 10
-136.6825060525295
 20
21.84489442625503
 30
0.0
 11
-137.6407478677581
 21
21.84489442625503
 31
0.0
  0
LINE
  5
3EC5F
330
18
100
AcDbEntity
  8
0
  6
Continuous
 62
     7
370
    15
100
AcDbLine
 10
-132.3986015508341
 20
23.59182210539325
 30
0.0
 11
-136.6825060525295
 21
21.84489442625503
 31
0.0
  0
CIRCLE
  5
3EC60
330
18
100
AcDbEntity
  8
0
  6
Continuous
 62
     7
370
    15
100
AcDbCircle
 10
-133.6386790791411
 20
24.66325162918284
 30
0.0
 40
0.3663866000221969
  0
LINE
  5
3EC61
330
18
100
AcDbEntity
  8
0
  6
Continuous
 62
     7
370
    15
100
AcDbLine
 10
-136.6825060525295
 20
27.48160885519864
 30
0.0
 11
-137.6407478677581
 21
27.48160885519864
 31
0.0
  0
LINE
  5
3EC62
330
18
100
AcDbEntity
  8
0
  6
Continuous
 62
     7
370
    15
100
AcDbLine
 10
-136.6825060525295
 20
27.48160885519864
 30
0.0
 11
-132.3986015508341
 21
25.73377536778335
 31
0.0
  0
LINE
  5
3EC63
330
18
100
AcDbEntity
  8
0
  6
Continuous
 62
     7
370
    15
100
AcDbLine
 10
-137.6407478677581
 20
27.48160885519864
 30
0.0
 11
-138.0353180317233
 21
27.48160885519864
 31
0.0
  0
LINE
  5
3EC64
330
18
100
AcDbEntity
  8
0
  6
Continuous
 62
     7
370
    15
100
AcDbLine
 10
-138.0353180317233
 20
27.48160885519864
 30
0.0
 11
-138.0353180317233
 21
27.3125083953161
 31
0.0
  0
LINE
  5
3EC65
330
18
100
AcDbEntity
  8
0
  6
Continuous
 62
     7
370
    15
100
AcDbLine
 10
-138.0353180317233
 20
22.01399277070044
 30
0.0
 11
-138.0353180317233
 21
21.84489442625503
 31
0.0
  0
LINE
  5
3EC66
330
18
100
AcDbEntity
  8
0
  6
Continuous
 62
     7
370
    15
100
AcDbLine
 10
-137.6407478677581
 20
21.84489442625503
 30
0.0
 11
-138.0353180317233
 21
21.84489442625503
 31
0.0
  0
LINE
  5
3EC67
330
18
100
AcDbEntity
  8
0
  6
Continuous
 62
     7
370
    15
100
AcDbLine
 10
-138.0353180317233
 20
27.3125083953161
 30
0.0
 11
-138.0353180317233
 21
22.01399277070044
 31
0.0
  0
LINE
  5
3EC68
330
18
100
AcDbEntity
  8
0
  6
Continuous
 62
     8
370
    15
100
AcDbLine
 10
-133.7862240386887
 20
26.2999254888243
 30
0.0
 11
-125.8552545425043
 21
30.81539773199002
 31
0.0
  0
LINE
  5
3EC69
330
18
100
AcDbEntity
  8
0
  6
Continuous
 62
     7
370
    15
100
AcDbLine
 10
-106.9476470729018
 20
40.53167536115364
 30
0.0
 11
-106.8510956394131
 21
40.64364008605181
 31
0.0
  0
LINE
  5
3EC6A
330
18
100
AcDbEntity
  8
0
  6
Continuous
 62
     7
370
    15
100
AcDbLine
 10
-106.0862662894317
 20
39.30029534508356
 30
0.0
 11
-106.1828181181994
 21
39.18833105797245
 31
0.0
  0
LINE
  5
3EC6B
330
18
100
AcDbEntity
  8
0
  6
Continuous
 62
     7
370
    15
100
AcDbLine
 10
-113.762670090888
 20
37.06979851049499
 30
0.0
 11
-107.4642425441228
 21
40.655789090578
 31
0.0
  0
LINE
  5
3EC6C
330
18
100
AcDbEntity
  8
0
  6
Continuous
 62
     7
370
    15
100
AcDbLine
 10
-106.3397563168573
 20
38.68074314500666
 30
0.0
 11
-112.6381845235659
 21
35.09475376007975
 31
0.0
  0
LINE
  5
3EC6D
330
18
100
AcDbEntity
  8
0
  6
Continuous
 62
     7
370
    15
100
AcDbLine
 10
-107.4642425441228
 20
40.655789090578
 30
0.0
 11
-107.3104958587669
 21
40.61359857350208
 31
0.0
  0
LINE
  5
3EC6E
330
18
100
AcDbEntity
  8
0
  6
Continuous
 62
     7
370
    15
100
AcDbLine
 10
-106.297565963411
 20
38.83448992241529
 30
0.0
 11
-106.3397563168573
 21
38.68074314500666
 31
0.0
  0
LINE
  5
3EC6F
330
18
100
AcDbEntity
  8
0
  6
Continuous
 62
     7
370
    15
100
AcDbLine
 10
-107.2675970156752
 20
40.59521368949726
 30
0.0
 11
-106.9556791334743
 21
40.54578295735018
 31
0.0
  0
LINE
  5
3EC70
330
18
100
AcDbEntity
  8
0
  6
Continuous
 62
     7
370
    15
100
AcDbLine
 10
-106.174786057627
 20
39.17422346177605
 30
0.0
 11
-106.2914805645849
 21
38.880763937702
 31
0.0
  0
LINE
  5
3EC71
330
18
100
AcDbEntity
  8
0
  6
Continuous
 62
     7
370
    15
100
AcDbLine
 10
-107.2920891651552
 20
40.58126897951052
 30
0.0
 11
-107.2675970156752
 21
40.59521368949726
 31
0.0
  0
LINE
  5
3EC72
330
18
100
AcDbEntity
  8
0
  6
Continuous
 62
     7
370
    15
100
AcDbLine
 10
-106.2914805645849
 20
38.880763937702
 30
0.0
 11
-106.3159726578005
 21
38.86681951918553
 31
0.0
  0
LWPOLYLINE
  5
3EC73
330
18
100
AcDbEntity
  8
0
  6
Continuous
 62
     7
370
    15
100
AcDbPolyline
 90
        9
 70
   128
 43
0.0
 10
-114.9889350856904
 20
36.9451095346692
 10
-115.0052572254868
 20
36.97377830542862
 10
-115.0209528835248
 20
37.00134556886153
 10
-115.0354178046811
 20
37.02675194824377
 10
-115.0480966474481
 20
37.04902052197542
 10
-115.0585016638999
 20
37.06729610196081
 10
-115.066233458747
 20
37.08087623379282
 10
-115.0709942283943
 20
37.08923881169508
 10
-115.0726021825092
 20
37.0920622057138
  0
LINE
  5
3EC74
330
18
100
AcDbEntity
  8
0
  6
Continuous
 62
     7
370
    15
100
AcDbLine
 10
-113.0351401622247
 20
33.51346731928884
 30
0.0
 11
-113.1188072976111
 21
33.6604201173963
 31
0.0
  0
LINE
  5
3EC75
330
18
100
AcDbEntity
  8
0
  6
Continuous
 62
     7
370
    15
100
AcDbLine
 10
-114.0929165136381
 20
37.64984282813737
 30
0.0
 11
-115.0726021825091
 21
37.09206220571349
 31
0.0
  0
LWPOLYLINE
  5
3EC76
330
18
100
AcDbEntity
  8
0
  6
Continuous
 62
     7
370
    15
100
AcDbPolyline
 90
        9
 70
   128
 43
0.0
 10
-115.0726021825092
 20
37.0920622057138
 10
-115.0709942283943
 20
37.08923881169508
 10
-115.066233458747
 20
37.08087623379282
 10
-115.0585016638999
 20
37.06729610196081
 10
-115.0480966474481
 20
37.04902052197542
 10
-115.0354178046811
 20
37.02675194824377
 10
-115.0209528835248
 20
37.00134556886153
 10
-115.0052572254868
 20
36.97377830542862
 10
-114.9889350856904
 20
36.9451095346692
  0
LINE
  5
3EC77
330
18
100
AcDbEntity
  8
0
  6
Continuous
 62
     7
370
    15
100
AcDbLine
 10
-114.9889350856903
 20
36.94510953466898
 30
0.0
 11
-114.0092494168193
 21
37.50289015709288
 31
0.0
  0
LINE
  5
3EC78
330
18
100
AcDbEntity
  8
0
  6
Continuous
 62
     7
370
    15
100
AcDbLine
 10
-112.1391219532197
 20
34.21820092470316
 30
0.0
 11
-113.1188072976111
 21
33.6604201173963
 31
0.0
  0
LINE
  5
3EC79
330
18
100
AcDbEntity
  8
0
  6
Continuous
 62
     7
370
    15
100
AcDbLine
 10
-113.1188072976111
 20
33.6604201173963
 30
0.0
 11
-114.9889350856903
 21
36.94510953466898
 31
0.0
  0
LINE
  5
3EC7A
330
18
100
AcDbEntity
  8
0
  6
Continuous
 62
     7
370
    15
100
AcDbLine
 10
-113.0351401622247
 20
33.51346731928884
 30
0.0
 11
-112.055454856401
 21
34.07124825365868
 31
0.0
  0
LINE
  5
3EC7B
330
18
100
AcDbEntity
  8
0
  6
Continuous
 62
     7
370
    15
100
AcDbLine
 10
-107.4642425441228
 20
40.655789090578
 30
0.0
 11
-106.3397563168573
 21
38.68074314500666
 31
0.0
  0
LINE
  5
3EC7C
330
18
100
AcDbEntity
  8
0
  6
Continuous
 62
     7
370
    15
100
AcDbLine
 10
-106.297565963411
 20
38.83448992241529
 30
0.0
 11
-107.3104958587669
 21
40.61359857350208
 31
0.0
  0
LINE
  5
3EC7D
330
18
100
AcDbEntity
  8
0
  6
Continuous
 62
     7
370
    15
100
AcDbLine
 10
-106.174786057627
 20
39.17422346177605
 30
0.0
 11
-106.9556791334743
 21
40.54578295735018
 31
0.0
  0
LINE
  5
3EC7E
330
18
100
AcDbEntity
  8
0
  6
Continuous
 62
     7
370
    15
100
AcDbLine
 10
-107.2675970156752
 20
40.59521368949726
 30
0.0
 11
-106.2914805645849
 21
38.880763937702
 31
0.0
  0
LINE
  5
3EC7F
330
18
100
AcDbEntity
  8
0
  6
Continuous
 62
     7
370
    15
100
AcDbLine
 10
-106.0051476212137
 20
39.85189129199753
 30
0.0
 11
-106.0141344522953
 21
39.85715217795235
 31
0.0
  0
LINE
  5
3EC80
330
18
100
AcDbEntity
  8
0
  6
Continuous
 62
     7
370
    15
100
AcDbLine
 10
-106.3354167967059
 20
40.42145164523847
 30
0.0
 11
-106.3353539018034
 21
40.43186456311767
 31
0.0
  0
LINE
  5
3EC81
330
18
100
AcDbEntity
  8
0
  6
Continuous
 62
     7
370
    15
100
AcDbLine
 10
-106.8510956394131
 20
40.64364008605181
 30
0.0
 11
-106.720923703363
 21
40.64285572433283
 31
0.0
  0
LINE
  5
3EC82
330
18
100
AcDbEntity
  8
0
  6
Continuous
 62
     7
370
    15
100
AcDbLine
 10
-106.0205016252438
 20
39.41263557463606
 30
0.0
 11
-106.0862662894317
 21
39.30029534508356
 31
0.0
  0
LINE
  5
3EC83
330
18
100
AcDbEntity
  8
0
  6
Continuous
 62
     7
370
    15
100
AcDbLine
 10
-105.979246913473
 20
39.8666374505431
 30
0.0
 11
-105.7951770118091
 21
39.9714378751919
 31
0.0
  0
LINE
  5
3EC84
330
18
100
AcDbEntity
  8
0
  6
Continuous
 62
     7
370
    15
100
AcDbLine
 10
-105.7951770118091
 20
39.9714378751919
 30
0.0
 11
-105.905357695164
 21
40.16287811348331
 31
0.0
  0
LINE
  5
3EC85
330
18
100
AcDbEntity
  8
0
  6
Continuous
 62
     7
370
    15
100
AcDbLine
 10
-106.1443501961436
 20
40.15662459468851
 30
0.0
 11
-105.9906180962684
 21
40.24415179917184
 31
0.0
  0
SPLINE
  5
3EC86
330
18
100
AcDbEntity
  8
0
  6
Continuous
 62
     7
370
    15
100
AcDbSpline
210
0.0
220
0.0
230
1.0
 70
     8
 71
     3
 72
     9
 73
     5
 74
     0
 42
0.0000000001
 43
0.0000000001
 40
0.0
 40
0.0
 40
0.0
 40
0.0
 40
0.5344463046685081
 40
1.0
 40
1.0
 40
1.0
 40
1.0
 10
-106.1443501958529
 20
40.15662459610228
 30
0.0
 10
-106.128357708917
 20
40.0971027296091
 30
0.0
 10
-106.0984342408415
 20
39.9857316414882
 30
0.0
 10
-106.0171084396577
 20
39.90446939170036
 30
0.0
 10
-105.9792469123908
 20
39.86663745102044
 30
0.0
  0
LINE
  5
3EC87
330
18
100
AcDbEntity
  8
0
  6
Continuous
 62
     7
370
    15
100
AcDbLine
 10
-106.3094534795921
 20
40.44661174161274
 30
0.0
 11
-106.1365649594327
 21
40.54504412006406
 31
0.0
  0
SPLINE
  5
3EC88
330
18
100
AcDbEntity
  8
0
  6
Continuous
 62
     7
370
    15
100
AcDbSpline
210
0.0
220
0.0
230
1.0
 70
     8
 71
     3
 72
     9
 73
     5
 74
     0
 42
0.0000000001
 43
0.0000000001
 40
0.0
 40
0.0
 40
0.0
 40
0.0
 40
0.5344492675938265
 40
1.0
 40
1.0
 40
1.0
 40
1.0
 10
-106.3094534793149
 20
40.44661174118402
 30
0.0
 10
-106.293460994587
 20
40.38708947030812
 30
0.0
 10
-106.2635376965348
 20
40.27571824298115
 30
0.0
 10
-106.1822116134135
 20
40.19445619981484
 30
0.0
 10
-106.1443501958529
 20
40.15662459610228
 30
0.0
  0
LINE
  5
3EC89
330
18
100
AcDbEntity
  8
0
  6
Continuous
 62
     7
370
    15
100
AcDbLine
 10
-105.979246913473
 20
39.8666374505431
 30
0.0
 11
-105.9996711290283
 21
39.85500897719166
 31
0.0
  0
LINE
  5
3EC8A
330
18
100
AcDbEntity
  8
0
  6
Continuous
 62
     7
370
    15
100
AcDbLine
 10
-106.3298776979267
 20
40.4349832674834
 30
0.0
 11
-106.3094534795921
 21
40.44661174161274
 31
0.0
  0
LWPOLYLINE
  5
3EC8B
330
18
100
AcDbEntity
  8
0
  6
Continuous
 62
     7
370
    15
100
AcDbPolyline
 90
       18
 70
   128
 43
0.0
 10
-106.8510956394131
 20
40.64364008605221
 10
-106.8445843496196
 20
40.63220392273052
 10
-106.8252723974353
 20
40.59828384608542
 10
-106.7938172982133
 20
40.54303530906344
 10
-106.7512887037172
 20
40.46834012827026
 10
-106.6991377759026
 20
40.37674032261321
 10
-106.6391384701437
 20
40.27135786306934
 10
-106.5733345064095
 20
40.15577984268941
 10
-106.5039660047668
 20
40.03394166126478
 10
-106.4333969468063
 20
39.90999348356345
 10
-106.3640287306932
 20
39.78815632208839
 10
-106.2982244786503
 20
39.67257728253691
 10
-106.2382251728917
 20
39.56719482299386
 10
-106.1860735106572
 20
39.475596322815
 10
-106.1435457929567
 20
39.40090034512861
 10
-106.1120906965136
 20
39.34565180732787
 10
-106.0927777243803
 20
39.31173201621297
 10
-106.0862662894317
 20
39.30029534508356
  0
LWPOLYLINE
  5
3EC8C
330
18
100
AcDbEntity
  8
0
  6
Continuous
 62
     7
370
    15
100
AcDbPolyline
 90
       18
 70
   128
 43
0.0
 10
-106.0205016252437
 20
39.41263557463577
 10
-106.0268308996472
 20
39.42375127388411
 10
-106.0455877123948
 20
39.45669712056534
 10
-106.0760970011695
 20
39.51028246269874
 10
-106.1172526399782
 20
39.58256976748621
 10
-106.1675705587702
 20
39.67094655748116
 10
-106.225229360137
 20
39.77221952989126
 10
-106.2881470525034
 20
39.88272768964492
 10
-106.3540485084106
 20
39.99847731335683
 10
-106.420552909183
 20
40.11528558370918
 10
-106.4852559700611
 20
40.22892900263179
 10
-106.545818036128
 20
40.33530113884052
 10
-106.6000518485184
 20
40.43055729305018
 10
-106.6459970759221
 20
40.51125514804243
 10
-106.6819930647147
 20
40.57447727936664
 10
-106.7067378590853
 20
40.61793988459931
 10
-106.7193386553881
 20
40.64007096805158
 10
-106.720923703363
 20
40.64285572433286
  0
LWPOLYLINE
  5
3EC8D
330
18
100
AcDbEntity
  8
0
  6
Continuous
 62
     7
370
    15
100
AcDbPolyline
 90
       14
 70
   128
 43
0.0
 10
-105.9284593571119
 20
39.70667328871371
 10
-105.9384984614668
 20
39.72430517057114
 10
-105.9612413126564
 20
39.76425140076054
 10
-105.9954670548452
 20
39.82436480932873
 10
-106.0393341671403
 20
39.90141157687478
 10
-106.0904835516938
 20
39.99125115827997
 10
-106.1461657580583
 20
40.08905120915829
 10
-106.203385490943
 20
40.1895526140328
 10
-106.259067697307
 20
40.28735266491032
 10
-106.3102181018104
 20
40.37719196078765
 10
-106.354084191377
 20
40.45423901464118
 10
-106.3883099363449
 20
40.51435242243127
 10
-106.4110527867565
 20
40.55429864984136
 10
-106.4210918918891
 20
40.57193053447656
  0
LINE
  5
3EC8E
330
18
100
AcDbEntity
  8
0
  6
Continuous
 62
     7
370
    15
100
AcDbLine
 10
-106.4210918918891
 20
40.57193053447676
 30
0.0
 11
-106.4806566574909
 21
40.53801771501094
 31
0.0
  0
LWPOLYLINE
  5
3EC8F
330
18
100
AcDbEntity
  8
0
  6
Continuous
 62
     7
370
    15
100
AcDbPolyline
 90
       11
 70
   128
 43
0.0
 10
-106.480656657491
 20
40.53801771501134
 10
-106.4464311980522
 20
40.47790532716987
 10
-106.402515709271
 20
40.40077210305156
 10
-106.3509167459914
 20
40.31014302262209
 10
-106.2939913507115
 20
40.21015920039374
 10
-106.2343403891021
 20
40.10538909390897
 10
-106.1746891391837
 20
40.00061796825201
 10
-106.1177637466827
 20
39.90063414524488
 10
-106.0661647806244
 20
39.81000506559496
 10
-106.0222495801515
 20
39.73287286064738
 10
-105.9880248551326
 20
39.67275916732777
  0
LWPOLYLINE
  5
3EC90
330
18
100
AcDbEntity
  8
0
  6
Continuous
 62
     7
370
    15
100
AcDbPolyline
 90
        3
 70
   128
 43
0.0
 10
-105.9880248551326
 20
39.67275916732777
 10
-105.9485082861794
 20
39.6952586612417
 10
-105.9284593571119
 20
39.70667328871371
  0
LINE
  5
3EC91
330
18
100
AcDbEntity
  8
0
  6
Continuous
 62
     7
370
    15
100
AcDbLine
 10
-105.9880248551327
 20
39.6727591673278
 30
0.0
 11
-106.1243968357017
 21
39.59511662954589
 31
0.0
  0
LINE
  5
3EC92
330
18
100
AcDbEntity
  8
0
  6
Continuous
 62
     7
370
    15
100
AcDbLine
 10
-106.61702863806
 20
40.46037517722985
 30
0.0
 11
-106.4806566574909
 21
40.53801771501094
 31
0.0
  0
CIRCLE
  5
3EC93
330
18
100
AcDbEntity
  8
0
  6
Continuous
 62
     7
370
    15
100
AcDbCircle
 10
-104.8463224200454
 20
40.8956524775889
 30
0.0
 40
0.2466950066587558
  0
CIRCLE
  5
3EC94
330
18
100
AcDbEntity
  8
0
  6
Continuous
 62
     7
370
    15
100
AcDbCircle
 10
-104.8463224200454
 20
40.8956524775889
 30
0.0
 40
0.2818367885533902
  0
LINE
  5
3EC95
330
18
100
AcDbEntity
  8
0
  6
Continuous
 62
     7
370
    15
100
AcDbLine
 10
-102.3379833213615
 20
44.16494896587153
 30
0.0
 11
-107.3546613194819
 21
44.16494769922917
 31
0.0
  0
LINE
  5
3EC96
330
18
100
AcDbEntity
  8
0
  6
Continuous
 62
     7
370
    15
100
AcDbLine
 10
-102.3379833213615
 20
44.16494896587153
 30
0.0
 11
-102.3379834209852
 21
44.55951952521866
 31
0.0
  0
LINE
  5
3EC97
330
18
100
AcDbEntity
  8
0
  6
Continuous
 62
     7
370
    15
100
AcDbLine
 10
-102.3379836202325
 20
44.55951952521866
 30
0.0
 11
-107.3546616183529
 21
44.55951825857627
 31
0.0
  0
LINE
  5
3EC98
330
18
100
AcDbEntity
  8
0
  6
Continuous
 62
     7
370
    15
100
AcDbLine
 10
-107.3546613194819
 20
44.16494769922917
 30
0.0
 11
-107.3546614191056
 21
44.55951825857627
 31
0.0
  0
LINE
  5
3EC99
330
18
100
AcDbEntity
  8
0
  6
Continuous
 62
     7
370
    15
100
AcDbLine
 10
-102.3379832217379
 20
42.98123728783008
 30
0.0
 11
-102.3379833213615
 21
44.16494896587153
 31
0.0
  0
LINE
  5
3EC9A
330
18
100
AcDbEntity
  8
0
  6
Continuous
 62
     7
370
    15
100
AcDbLine
 10
-107.3546612198583
 20
42.9812360211877
 30
0.0
 11
-107.3546613194819
 21
44.16494769922917
 31
0.0
  0
LINE
  5
3EC9B
330
18
100
AcDbEntity
  8
0
  6
Continuous
 62
     7
370
    15
100
AcDbLine
 10
-105.9454819024685
 20
40.16287810335251
 30
0.0
 11
-107.3546612198583
 21
42.9812360211877
 31
0.0
  0
LINE
  5
3EC9C
330
18
100
AcDbEntity
  8
0
  6
Continuous
 62
     7
370
    15
100
AcDbLine
 10
-103.7471621750955
 20
40.16287865839814
 30
0.0
 11
-105.9454819024685
 21
40.16287810335251
 31
0.0
  0
LINE
  5
3EC9D
330
18
100
AcDbEntity
  8
0
  6
Continuous
 62
     7
370
    15
100
AcDbLine
 10
-102.3379832217379
 20
42.98123728783008
 30
0.0
 11
-103.7471621750955
 21
40.16287865839814
 31
0.0
  0
LINE
  5
3EC9E
330
18
100
AcDbEntity
  8
0
100
AcDbLine
 10
-112.055454856401
 20
34.07124825365868
 30
0.0
 11
-114.0929165136381
 21
37.64984282813737
 31
0.0
  0
LINE
  5
3EC9F
330
18
100
AcDbEntity
  8
0
  6
Continuous
 62
     7
370
    15
100
AcDbLine
 10
-107.3546616183529
 20
44.55951825857627
 30
0.0
 11
-107.3546616183529
 21
44.55951825857627
 31
0.0
  0
LINE
  5
3ECA0
330
18
100
AcDbEntity
  8
0
  6
Continuous
 62
     7
370
    15
100
AcDbLine
 10
-133.8764951492149
 20
26.44810762561943
 30
0.0
 11
-133.9473500405973
 21
26.40896080294799
 31
0.0
  0
LINE
  5
3ECA1
330
18
100
AcDbEntity
  8
0
  6
Continuous
 62
     7
370
    15
100
AcDbLine
 10
-133.7970699371999
 20
26.30435061655804
 30
0.0
 11
-133.8691907096247
 21
26.43488821917319
 31
0.0
  0
LWPOLYLINE
  5
3ECA2
330
18
100
AcDbEntity
  8
0
  6
Continuous
 62
     7
370
    15
100
AcDbPolyline
 90
        9
 70
   128
 43
0.0
 10
-133.5804678584592
 20
26.61166073982233
 10
-133.579420577409
 20
26.60976462729703
 10
-133.5763180214966
 20
26.6041495914007
 10
-133.5712812627913
 20
26.59502963704376
 10
-133.564500822573
 20
26.58275867042192
 10
-133.5562394626978
 20
26.56780551527538
 10
-133.5468137170056
 20
26.55074650242
 10
-133.5365863640573
 20
26.53223561959516
 10
-133.5259506712841
 20
26.51298449731441
  0
LWPOLYLINE
  5
3ECA3
330
18
100
AcDbEntity
  8
0
  6
Continuous
 62
     7
370
    15
100
AcDbPolyline
 90
        9
 70
   128
 43
0.0
 10
-133.6739643167352
 20
26.43120793817349
 10
-133.6810803178111
 20
26.44408811607488
 10
-133.6880743895392
 20
26.4567471396375
 10
-133.6948273624568
 20
26.46896994327898
 10
-133.7012236846219
 20
26.48054534097012
 10
-133.7071532428415
 20
26.49127730876803
 10
-133.7125144678774
 20
26.50098211535989
 10
-133.7172156637601
 20
26.50949285632527
 10
-133.7211786130661
 20
26.51666333324214
  0
LINE
  5
3ECA4
330
18
100
AcDbEntity
  8
0
  6
Continuous
 62
     7
370
    15
100
AcDbLine
 10
-133.8764951492149
 20
26.44810762561943
 30
0.0
 11
-133.5804678584592
 21
26.61166073982221
 31
0.0
  0
LWPOLYLINE
  5
3ECA5
330
18
100
AcDbEntity
  8
0
  6
Continuous
 62
     7
370
    15
100
AcDbPolyline
 90
        9
 70
   128
 43
0.0
 10
-133.8691907096246
 20
26.43488821917312
 10
-133.8708739061035
 20
26.43793072890405
 10
-133.8723453122526
 20
26.44059647719827
 10
-133.8736024731646
 20
26.44287040338277
 10
-133.874638186133
 20
26.44474475768348
 10
-133.8754478660516
 20
26.44621151505992
 10
-133.8760280233993
 20
26.44726381103398
 10
-133.8763788718618
 20
26.44789565993533
 10
-133.8764951492148
 20
26.4481076256193
  0
LINE
  5
3ECA6
330
18
100
AcDbEntity
  8
0
  6
Continuous
 62
     7
370
    15
100
AcDbLine
 10
-133.7211786130662
 20
26.51666333324219
 30
0.0
 11
-133.8691907096247
 21
26.43488821917319
 31
0.0
  0
LINE
  5
3ECA7
330
18
100
AcDbEntity
  8
0
  6
Continuous
 62
     7
370
    15
100
AcDbLine
 10
-133.5259506712844
 20
26.51298449731475
 30
0.0
 11
-133.6739643167352
 21
26.4312079381734
 31
0.0
  0
LINE
  5
3ECA8
330
18
100
AcDbEntity
  8
0
  6
Continuous
 62
     7
370
    15
100
AcDbLine
 10
-132.3986015508341
 20
24.53583159638383
 30
0.0
 11
-131.5987846852312
 21
23.13103382160978
 31
0.0
  0
LINE
  5
3ECAC
330
18
100
AcDbEntity
  8
0
  6
Continuous
 62
     7
370
    15
100
AcDbLine
 10
-52.02988819568847
 20
27.48160885519853
 30
0.0
 11
-52.02988819568847
 21
21.84489442625491
 31
0.0
  0
LINE
  5
3ECAD
330
18
100
AcDbEntity
  8
0
  6
Continuous
 62
     7
370
    15
100
AcDbLine
 10
-52.98813001091705
 20
21.84489442625491
 30
0.0
 11
-52.02988819568847
 21
21.84489442625491
 31
0.0
  0
LINE
  5
3ECAE
330
18
100
AcDbEntity
  8
0
  6
Continuous
 62
     7
370
    15
100
AcDbLine
 10
-57.27203451261246
 20
23.59182210539314
 30
0.0
 11
-52.98813001091705
 21
21.84489442625491
 31
0.0
  0
LINE
  5
3ECAF
330
18
100
AcDbEntity
  8
0
  6
Continuous
 62
     7
370
    15
100
AcDbLine
 10
-51.63531803172324
 20
22.01399277070033
 30
0.0
 11
-51.63531803172324
 21
21.84489442625491
 31
0.0
  0
LINE
  5
3ECB0
330
18
100
AcDbEntity
  8
0
  6
Continuous
 62
     7
370
    15
100
AcDbLine
 10
-52.02988819568847
 20
21.84489442625491
 30
0.0
 11
-51.63531803172324
 21
21.84489442625491
 31
0.0
  0
LINE
  5
3ECB1
330
18
100
AcDbEntity
  8
0
  6
Continuous
 62
     7
370
    15
100
AcDbLine
 10
-51.63531803172324
 20
27.31250839531599
 30
0.0
 11
-51.63531803172324
 21
22.01399277070033
 31
0.0
  0
LINE
  5
3ECB2
330
18
100
AcDbEntity
  8
0
  6
Continuous
 62
     7
370
    15
100
AcDbLine
 10
-52.98813001091705
 20
27.48160885519853
 30
0.0
 11
-52.02988819568847
 21
27.48160885519853
 31
0.0
  0
LINE
  5
3ECB3
330
18
100
AcDbEntity
  8
0
  6
Continuous
 62
     7
370
    15
100
AcDbLine
 10
-52.98813001091705
 20
27.48160885519853
 30
0.0
 11
-57.27203451261246
 21
25.73377536778324
 31
0.0
  0
LINE
  5
3ECB4
330
18
100
AcDbEntity
  8
0
  6
Continuous
 62
     7
370
    15
100
AcDbLine
 10
-52.02988819568847
 20
27.48160885519853
 30
0.0
 11
-51.63531803172324
 21
27.48160885519853
 31
0.0
  0
LINE
  5
3ECB5
330
18
100
AcDbEntity
  8
0
  6
Continuous
 62
     7
370
    15
100
AcDbLine
 10
-51.63531803172324
 20
27.48160885519853
 30
0.0
 11
-51.63531803172324
 21
27.31250839531599
 31
0.0
  0
LINE
  5
3ECB6
330
18
100
AcDbEntity
  8
0
  6
Continuous
 62
     7
370
    15
100
AcDbLine
 10
-57.27203451261246
 20
25.73377536778324
 30
0.0
 11
-57.27203451261246
 21
23.59182210539314
 31
0.0
  0
CIRCLE
  5
3ECB7
330
18
100
AcDbEntity
  8
0
  6
Continuous
 62
     7
370
    15
100
AcDbCircle
 10
-56.03195698430543
 20
24.66325162918272
 30
0.0
 40
0.3663866000221969
  0
LINE
  5
3ECB8
330
18
100
AcDbEntity
  8
0
100
AcDbLine
 10
-132.3986015508341
 20
25.73377536778335
 30
0.0
 11
-132.3986015508341
 21
23.59182210539325
 31
0.0
  0
LINE
  5
3ECB9
330
18
100
AcDbEntity
  8
0
  6
Continuous
 62
     7
370
    15
100
AcDbLine
 10
-133.9473500405973
 20
26.40896080294799
 30
0.0
 11
-133.9152409375329
 21
26.35256439712703
 31
0.0
  0
ENDSEC
  0
SECTION
  2
OBJECTS
  0
DICTIONARY
  5
C
330
0
100
AcDbDictionary
281
     1
  3
ACAD_COLOR
350
5C80
  3
ACAD_GROUP
350
D
  3
ACAD_LAYOUT
350
23C5
  3
ACAD_MATERIAL
350
5C7F
  3
ACAD_MLINESTYLE
350
E
  3
ACAD_PLOTSETTINGS
350
23C6
  3
ACAD_PLOTSTYLENAME
350
23C3
  3
ACAD_TABLESTYLE
350
3E948
  3
ACAD_VISUALSTYLE
350
3E937
  3
AcDbVariableDictionary
350
3ECD0
  3
ASE_INDEX_DICTIONARY
350
3CB29
  0
DICTIONARY
  5
3ECBA
330
8
100
AcDbDictionary
280
     1
281
     1
  0
DICTIONARY
  5
603A
330
2
100
AcDbDictionary
280
     1
281
     1
  3
ACAD_LAYERFILTERS
360
A62A
  3
ACAD_LAYERSTATES
360
603B
  0
DICTIONARY
  5
6086
330
18
100
AcDbDictionary
280
     1
281
     1
  0
DICTIONARY
  5
6958
330
6816
100
AcDbDictionary
280
     1
281
     1
  3
ACAD_SORTENTS
360
344F1
  0
DICTIONARY
  5
6A72
330
69AA
100
AcDbDictionary
280
     1
281
     1
  3
ACAD_SORTENTS
360
35AD2
  0
DICTIONARY
  5
3429B
330
3429A
100
AcDbDictionary
280
     1
281
     1
  3
ACAD_SORTENTS
360
3429C
  0
DICTIONARY
  5
5C80
102
{ACAD_REACTORS
330
C
102
}
330
C
100
AcDbDictionary
281
     1
  0
DICTIONARY
  5
D
102
{ACAD_REACTORS
330
C
102
}
330
C
100
AcDbDictionary
281
     1
  0
DICTIONARY
  5
23C5
102
{ACAD_REACTORS
330
C
102
}
330
C
100
AcDbDictionary
281
     1
  3
Layout1
350
23C8
  3
Model
350
23C7
  0
DICTIONARY
  5
5C7F
102
{ACAD_REACTORS
330
C
102
}
330
C
100
AcDbDictionary
281
     1
  3
ByBlock
350
3E936
  3
ByLayer
350
3E935
  3
Global
350
6037
  0
DICTIONARY
  5
E
102
{ACAD_REACTORS
330
C
102
}
330
C
100
AcDbDictionary
281
     1
  3
STANDARD
350
1B
  0
DICTIONARY
  5
23C6
102
{ACAD_REACTORS
330
C
102
}
330
C
100
AcDbDictionary
281
     1
  3
Customer Drawing - 22 x 17
350
23CB
  0
ACDBDICTIONARYWDFLT
  5
23C3
102
{ACAD_REACTORS
330
C
102
}
330
C
100
AcDbDictionary
281
     1
  3
Normal
350
23C4
100
AcDbDictionaryWithDefault
340
23C4
  0
DICTIONARY
  5
3E948
102
{ACAD_REACTORS
330
C
102
}
330
C
100
AcDbDictionary
281
     1
  3
Standard
350
3E949
  0
DICTIONARY
  5
3E937
102
{ACAD_REACTORS
330
C
102
}
330
C
100
AcDbDictionary
281
     1
  3
2dWireframe
350
3E93D
  3
3D Hidden
350
3E93F
  3
3dWireframe
350
3E93E
  3
Basic
350
3E93C
  3
Brighten
350
3E943
  3
ColorChange
350
3E947
  3
Conceptual
350
3E940
  3
Dim
350
3E942
  3
Facepattern
350
3E946
  3
Flat
350
3E938
  3
FlatWithEdges
350
3E939
  3
Gouraud
350
3E93A
  3
GouraudWithEdges
350
3E93B
  3
Linepattern
350
3E945
  3
Realistic
350
3E941
  3
Thicken
350
3E944
  0
DICTIONARY
  5
3ECD0
102
{ACAD_REACTORS
330
C
102
}
330
C
100
AcDbDictionary
281
     1
  3
CTABLESTYLE
350
3ECD1
  0
DICTIONARY
  5
3CB29
102
{ACAD_REACTORS
330
C
102
}
330
C
100
AcDbDictionary
281
     1
  3
ASEBlockHierarchyIndexRecord
350
3CB2A
1001
DCO15
1040
1644753560.452
  0
DICTIONARY
  5
A62A
102
{ACAD_REACTORS
330
603A
102
}
330
603A
100
AcDbDictionary
281
     1
  0
DICTIONARY
  5
603B
102
{ACAD_REACTORS
330
603A
102
}
330
603A
100
AcDbDictionary
281
     1
  0
SORTENTSTABLE
  5
344F1
102
{ACAD_REACTORS
330
6958
102
}
330
6958
100
AcDbSortentsTable
330
6816
  0
SORTENTSTABLE
  5
35AD2
102
{ACAD_REACTORS
330
6A72
102
}
330
6A72
100
AcDbSortentsTable
330
69AA
  0
SORTENTSTABLE
  5
3429C
102
{ACAD_REACTORS
330
3429B
102
}
330
3429B
100
AcDbSortentsTable
330
3429A
  0
LAYOUT
  5
23C8
102
{ACAD_REACTORS
330
23C5
102
}
330
23C5
100
AcDbPlotSettings
  1

  2
E:\Program Files\ACAD2000\plotters\DWF Classic.pc3
  4

  6

 40
0.0
 41
0.0
 42
0.0
 43
0.0
 44
0.0
 45
0.0
 46
0.0
 47
0.0
 48
0.0
 49
0.0
140
0.0
141
0.0
142
1.0
143
1.0
 70
   688
 72
     0
 73
     0
 74
     5
  7
Customer Drawings.ctb
 75
    16
147
1.0
 76
     0
 77
     2
 78
   300
148
0.0
149
0.0
100
AcDbLayout
  1
Layout1
 70
     0
 71
     1
 10
0.0
 20
0.0
 11
12.0
 21
9.0
 12
0.0
 22
0.0
 32
0.0
 14
1.000000000000000E+20
 24
1.000000000000000E+20
 34
1.000000000000000E+20
 15
-1.000000000000000E+20
 25
-1.000000000000000E+20
 35
-1.000000000000000E+20
146
0.0
 13
0.0
 23
0.0
 33
0.0
 16
1.0
 26
0.0
 36
0.0
 17
0.0
 27
1.0
 37
0.0
 76
     0
330
15
  0
LAYOUT
  5
23C7
102
{ACAD_REACTORS
330
23C5
102
}
330
23C5
100
AcDbPlotSettings
  1

  2
\\BILCOW2K\Eng LJ5100
  4
Letter
  6

 40
4.233333110809326
 41
4.233341693878173
 42
4.233322143554687
 43
4.23333740234375
 44
215.8999938964844
 45
279.3999938964844
 46
0.0
 47
1.27
 48
-1050.0
 49
400.0
140
-812.3999999999998
141
583.6
142
1.0
143
22.4816320776947
 70
 11956
 72
     0
 73
     1
 74
     4
  7
Customer Drawings.ctb
 75
     0
147
0.0444807564034533
 76
     1
 77
     2
 78
   300
148
26670.0
149
-10160.0
100
AcDbLayout
  1
Model
 70
     1
 71
     0
 10
0.0
 20
0.0
 11
12.0
 21
9.0
 12
0.0
 22
0.0
 32
0.0
 14
0.0
 24
0.0
 34
0.0
 15
0.0
 25
0.0
 35
0.0
146
0.0
 13
0.0
 23
0.0
 33
0.0
 16
1.0
 26
0.0
 36
0.0
 17
0.0
 27
1.0
 37
0.0
 76
     0
330
18
331
3E933
  0
MATERIAL
  5
3E936
102
{ACAD_XDICTIONARY
360
3ECDA
102
}
102
{ACAD_REACTORS
330
5C7F
102
}
330
5C7F
100
AcDbMaterial
  1
ByBlock
  0
MATERIAL
  5
3E935
102
{ACAD_XDICTIONARY
360
3ECD8
102
}
102
{ACAD_REACTORS
330
5C7F
102
}
330
5C7F
100
AcDbMaterial
  1
ByLayer
  0
MATERIAL
  5
6037
102
{ACAD_XDICTIONARY
360
3ECD6
102
}
102
{ACAD_REACTORS
330
5C7F
102
}
330
5C7F
100
AcDbMaterial
  1
Global
  0
MLINESTYLE
  5
1B
102
{ACAD_REACTORS
330
E
102
}
330
E
100
AcDbMlineStyle
  2
STANDARD
 70
     0
  3

 62
     0
 51
90.0
 52
90.0
 71
     2
 49
0.5
 62
   256
  6
BYLAYER
 49
-0.5
 62
   256
  6
BYLAYER
  0
PLOTSETTINGS
  5
23CB
102
{ACAD_REACTORS
330
23C6
102
}
330
23C6
100
AcDbPlotSettings
  1
Customer Drawing - 22 x 17
  2
\\BILCONT1\wh_plotter
  4
User1638
  6

 40
3.174999999999999
 41
3.174999999999999
 42
3.174987999999999
 43
3.174987999999999
 44
558.7999879999999
 45
431.800018
 46
0.0
 47
0.0
 48
0.0
 49
0.0
140
0.0
141
0.0
142
1.0
143
17.91044649826444
 70
  1712
 72
     0
 73
     0
 74
     2
  7
E:\Program Files\ACAD2000\Plot Styles\Customer Drawings.ctb
 75
     0
147
0.0558333372703412
 76
     0
 77
     2
 78
   300
148
3810.0
149
3810.0
  0
ACDBPLACEHOLDER
  5
23C4
102
{ACAD_REACTORS
330
23C3
102
}
330
23C3
  0
TABLESTYLE
  5
3E949
102
{ACAD_XDICTIONARY
360
3ECDC
102
}
102
{ACAD_REACTORS
330
3E948
102
}
330
3E948
100
AcDbTableStyle
  3
Standard
 70
     0
 71
     0
 40
0.06
 41
0.06
280
     0
281
     0
  7
STANDARD
140
0.18
170
     2
 62
     0
 63
     7
283
     0
274
    -2
284
     1
 64
     0
275
    -2
285
     1
 65
     0
276
    -2
286
     1
 66
     0
277
    -2
287
     1
 67
     0
278
    -2
288
     1
 68
     0
279
    -2
289
     1
 69
     0
  7
STANDARD
140
0.25
170
     5
 62
     0
 63
     7
283
     0
274
    -2
284
     1
 64
     0
275
    -2
285
     1
 65
     0
276
    -2
286
     1
 66
     0
277
    -2
287
     1
 67
     0
278
    -2
288
     1
 68
     0
279
    -2
289
     1
 69
     0
  7
STANDARD
140
0.18
170
     5
 62
     0
 63
     7
283
     0
274
    -2
284
     1
 64
     0
275
    -2
285
     1
 65
     0
276
    -2
286
     1
 66
     0
277
    -2
287
     1
 67
     0
278
    -2
288
     1
 68
     0
279
    -2
289
     1
 69
     0
  0
VISUALSTYLE
  5
3E93D
102
{ACAD_REACTORS
330
3E937
102
}
330
3E937
100
AcDbVisualStyle
  2
2dWireframe
 70
     4
 71
     0
 72
     2
 73
     0
 90
        0
 40
-0.6
 41
-30.0
 62
     5
 63
     7
421
 16777215
 74
     1
 91
        4
 64
     7
 65
   257
 75
     1
175
     1
 42
1.0
 92
        0
 66
   257
 43
1.0
 76
     1
 77
     6
 78
     2
 67
     7
 79
     5
170
     0
171
     0
290
     0
174
     0
 93
        1
 44
0.0
173
     0
291
     0
 45
0.0
1001
ACAD
1000
AcDbSavedByObjectVersion
1070
     0
  0
VISUALSTYLE
  5
3E93F
102
{ACAD_REACTORS
330
3E937
102
}
330
3E937
100
AcDbVisualStyle
  2
3D Hidden
 70
     6
 71
     1
 72
     2
 73
     2
 90
        0
 40
-0.6
 41
-30.0
 62
     5
 63
     7
421
 16777215
 74
     2
 91
        2
 64
     7
 65
   257
 75
     2
175
     1
 42
40.0
 92
        0
 66
   257
 43
1.0
 76
     1
 77
     6
 78
     2
 67
     7
 79
     3
170
     0
171
     0
290
     0
174
     0
 93
        1
 44
0.0
173
     0
291
     0
 45
0.0
1001
ACAD
1000
AcDbSavedByObjectVersion
1070
     0
  0
VISUALSTYLE
  5
3E93E
102
{ACAD_REACTORS
330
3E937
102
}
330
3E937
100
AcDbVisualStyle
  2
3dWireframe
 70
     5
 71
     0
 72
     2
 73
     0
 90
        0
 40
-0.6
 41
-30.0
 62
     5
 63
     7
421
 16777215
 74
     1
 91
        4
 64
     7
 65
   257
 75
     1
175
     1
 42
1.0
 92
        0
 66
   257
 43
1.0
 76
     1
 77
     6
 78
     2
 67
     7
 79
     5
170
     0
171
     0
290
     0
174
     0
 93
        1
 44
0.0
173
     0
291
     0
 45
0.0
1001
ACAD
1000
AcDbSavedByObjectVersion
1070
     0
  0
VISUALSTYLE
  5
3E93C
102
{ACAD_REACTORS
330
3E937
102
}
330
3E937
100
AcDbVisualStyle
  2
Basic
 70
     7
 71
     1
 72
     0
 73
     1
 90
        0
 40
-0.6
 41
-30.0
 62
     5
 63
     7
421
 16777215
 74
     0
 91
        4
 64
     7
 65
   257
 75
     1
175
     1
 42
1.0
 92
        8
 66
     7
 43
1.0
 76
     1
 77
     6
 78
     2
 67
     7
 79
     5
170
     0
171
     0
290
     0
174
     0
 93
        1
 44
0.0
173
     0
291
     1
 45
0.0
1001
ACAD
1000
AcDbSavedByObjectVersion
1070
     0
  0
VISUALSTYLE
  5
3E943
102
{ACAD_REACTORS
330
3E937
102
}
330
3E937
100
AcDbVisualStyle
  2
Brighten
 70
    12
 71
     2
 72
     2
 73
     0
 90
        0
 40
-0.6
 41
-30.0
 62
     5
 63
     7
421
 16777215
 74
     1
 91
        4
 64
     7
 65
   257
 75
     1
175
     1
 42
1.0
 92
        8
 66
     7
 43
1.0
 76
     1
 77
     6
 78
     2
 67
     7
 79
     5
170
     0
171
     0
290
     0
174
     0
 93
        1
 44
50.0
173
     0
291
     1
 45
0.0
1001
ACAD
1000
AcDbSavedByObjectVersion
1070
     0
  0
VISUALSTYLE
  5
3E947
102
{ACAD_REACTORS
330
3E937
102
}
330
3E937
100
AcDbVisualStyle
  2
ColorChange
 70
    16
 71
     2
 72
     2
 73
     3
 90
        0
 40
-0.6
 41
-30.0
 62
     5
 63
     8
421
  8421504
 74
     1
 91
        4
 64
     7
 65
   257
 75
     1
175
     1
 42
1.0
 92
        8
 66
     8
424
  8421504
 43
1.0
 76
     1
 77
     6
 78
     2
 67
     7
 79
     5
170
     0
171
     0
290
     0
174
     0
 93
        1
 44
0.0
173
     0
291
     1
 45
0.0
1001
ACAD
1000
AcDbSavedByObjectVersion
1070
     0
  0
VISUALSTYLE
  5
3E940
102
{ACAD_REACTORS
330
3E937
102
}
330
3E937
100
AcDbVisualStyle
  2
Conceptual
 70
     9
 71
     3
 72
     2
 73
     0
 90
        0
 40
-0.6
 41
-30.0
 62
     5
 63
     7
421
 16777215
 74
     2
 91
        2
 64
     7
 65
   257
 75
     1
175
     1
 42
40.0
 92
        8
 66
     7
 43
1.0
 76
     1
 77
     6
 78
     2
 67
     7
 79
     3
170
     0
171
     0
290
     0
174
     0
 93
        1
 44
0.0
173
     0
291
     0
 45
0.0
1001
ACAD
1000
AcDbSavedByObjectVersion
1070
     0
  0
VISUALSTYLE
  5
3E942
102
{ACAD_REACTORS
330
3E937
102
}
330
3E937
100
AcDbVisualStyle
  2
Dim
 70
    11
 71
     2
 72
     2
 73
     0
 90
        0
 40
-0.6
 41
-30.0
 62
     5
 63
     7
421
 16777215
 74
     1
 91
        4
 64
     7
 65
   257
 75
     1
175
     1
 42
1.0
 92
        8
 66
     7
 43
1.0
 76
     1
 77
     6
 78
     2
 67
     7
 79
     5
170
     0
171
     0
290
     0
174
     0
 93
        1
 44
-50.0
173
     0
291
     1
 45
0.0
1001
ACAD
1000
AcDbSavedByObjectVersion
1070
     0
  0
VISUALSTYLE
  5
3E946
102
{ACAD_REACTORS
330
3E937
102
}
330
3E937
100
AcDbVisualStyle
  2
Facepattern
 70
    15
 71
     2
 72
     2
 73
     0
 90
        0
 40
-0.6
 41
-30.0
 62
     5
 63
     7
421
 16777215
 74
     1
 91
        4
 64
     7
 65
   257
 75
     1
175
     1
 42
1.0
 92
        8
 66
     7
 43
1.0
 76
     1
 77
     6
 78
     2
 67
     7
 79
     5
170
     0
171
     0
290
     0
174
     0
 93
        1
 44
0.0
173
     0
291
     1
 45
0.0
1001
ACAD
1000
AcDbSavedByObjectVersion
1070
     0
  0
VISUALSTYLE
  5
3E938
102
{ACAD_REACTORS
330
3E937
102
}
330
3E937
100
AcDbVisualStyle
  2
Flat
 70
     0
 71
     2
 72
     1
 73
     1
 90
        2
 40
-0.6
 41
30.0
 62
     5
 63
     7
421
 16777215
 74
     0
 91
        4
 64
     7
 65
   257
 75
     1
175
     1
 42
1.0
 92
        8
 66
     7
 43
1.0
 76
     1
 77
     6
 78
     2
 67
     7
 79
     5
170
     0
171
     0
290
     0
174
     0
 93
       13
 44
0.0
173
     0
291
     1
 45
0.0
1001
ACAD
1000
AcDbSavedByObjectVersion
1070
     0
  0
VISUALSTYLE
  5
3E939
102
{ACAD_REACTORS
330
3E937
102
}
330
3E937
100
AcDbVisualStyle
  2
FlatWithEdges
 70
     1
 71
     2
 72
     1
 73
     1
 90
        2
 40
-0.6
 41
30.0
 62
     5
 63
     7
421
 16777215
 74
     1
 91
        4
 64
     7
 65
   257
 75
     1
175
     1
 42
1.0
 92
        0
 66
   257
 43
1.0
 76
     1
 77
     6
 78
     2
 67
     7
 79
     5
170
     0
171
     0
290
     0
174
     0
 93
       13
 44
0.0
173
     0
291
     1
 45
0.0
1001
ACAD
1000
AcDbSavedByObjectVersion
1070
     0
  0
VISUALSTYLE
  5
3E93A
102
{ACAD_REACTORS
330
3E937
102
}
330
3E937
100
AcDbVisualStyle
  2
Gouraud
 70
     2
 71
     2
 72
     2
 73
     1
 90
        2
 40
-0.6
 41
30.0
 62
     5
 63
     7
421
 16777215
 74
     0
 91
        4
 64
     7
 65
   257
 75
     1
175
     1
 42
1.0
 92
        0
 66
     7
 43
1.0
 76
     1
 77
     6
 78
     2
 67
     7
 79
     5
170
     0
171
     0
290
     0
174
     0
 93
       13
 44
0.0
173
     0
291
     1
 45
0.0
1001
ACAD
1000
AcDbSavedByObjectVersion
1070
     0
  0
VISUALSTYLE
  5
3E93B
102
{ACAD_REACTORS
330
3E937
102
}
330
3E937
100
AcDbVisualStyle
  2
GouraudWithEdges
 70
     3
 71
     2
 72
     2
 73
     1
 90
        2
 40
-0.6
 41
30.0
 62
     5
 63
     7
421
 16777215
 74
     1
 91
        4
 64
     7
 65
   257
 75
     1
175
     1
 42
1.0
 92
        0
 66
   257
 43
1.0
 76
     1
 77
     6
 78
     2
 67
     7
 79
     5
170
     0
171
     0
290
     0
174
     0
 93
       13
 44
0.0
173
     0
291
     1
 45
0.0
1001
ACAD
1000
AcDbSavedByObjectVersion
1070
     0
  0
VISUALSTYLE
  5
3E945
102
{ACAD_REACTORS
330
3E937
102
}
330
3E937
100
AcDbVisualStyle
  2
Linepattern
 70
    14
 71
     2
 72
     2
 73
     0
 90
        0
 40
-0.6
 41
-30.0
 62
     5
 63
     7
421
 16777215
 74
     1
 91
        4
 64
     7
 65
   257
 75
     7
175
     7
 42
1.0
 92
        8
 66
     7
 43
1.0
 76
     1
 77
     6
 78
     2
 67
     7
 79
     5
170
     0
171
     0
290
     0
174
     0
 93
        1
 44
0.0
173
     0
291
     1
 45
0.0
1001
ACAD
1000
AcDbSavedByObjectVersion
1070
     0
  0
VISUALSTYLE
  5
3E941
102
{ACAD_REACTORS
330
3E937
102
}
330
3E937
100
AcDbVisualStyle
  2
Realistic
 70
     8
 71
     2
 72
     2
 73
     0
 90
        0
 40
-0.6
 41
-30.0
 62
     5
 63
     7
421
 16777215
 74
     1
 91
        0
 64
     7
 65
   257
 75
     1
175
     1
 42
1.0
 92
        8
 66
     8
424
  7895160
 43
1.0
 76
     1
 77
     6
 78
     2
 67
     7
 79
     5
170
     0
171
     0
290
     0
174
     0
 93
       13
 44
0.0
173
     0
291
     0
 45
0.0
1001
ACAD
1000
AcDbSavedByObjectVersion
1070
     0
  0
VISUALSTYLE
  5
3E944
102
{ACAD_REACTORS
330
3E937
102
}
330
3E937
100
AcDbVisualStyle
  2
Thicken
 70
    13
 71
     2
 72
     2
 73
     0
 90
        0
 40
-0.6
 41
-30.0
 62
     5
 63
     7
421
 16777215
 74
     1
 91
        4
 64
     7
 65
   257
 75
     1
175
     1
 42
1.0
 92
       12
 66
     7
 43
1.0
 76
     1
 77
     6
 78
     2
 67
     7
 79
     5
170
     0
171
     0
290
     0
174
     0
 93
        1
 44
0.0
173
     0
291
     1
 45
0.0
1001
ACAD
1000
AcDbSavedByObjectVersion
1070
     0
  0
DICTIONARYVAR
  5
3ECD1
102
{ACAD_REACTORS
330
3ECD0
102
}
330
3ECD0
100
DictionaryVariables
280
     0
  1
STANDARD
  0
XRECORD
  5
3CB2A
102
{ACAD_REACTORS
330
3CB29
102
}
330
3CB29
100
AcDbXrecord
280
     1
330
0
330
0
330
0
330
0
330
0
330
0
330
0
330
0
330
0
330
0
330
0
330
0
330
0
330
0
330
0
330
0
  0
DICTIONARY
  5
3ECDA
330
3E936
100
AcDbDictionary
280
     1
281
     1
  3
ACAD_XREC_ROUNDTRIP
360
3ECDB
  0
DICTIONARY
  5
3ECD8
330
3E935
100
AcDbDictionary
280
     1
281
     1
  3
ACAD_XREC_ROUNDTRIP
360
3ECD9
  0
DICTIONARY
  5
3ECD6
330
6037
100
AcDbDictionary
280
     1
281
     1
  3
ACAD_XREC_ROUNDTRIP
360
3ECD7
  0
DICTIONARY
  5
3ECDC
330
3E949
100
AcDbDictionary
280
     1
281
     1
  3
ACAD_XREC_ROUNDTRIP
360
3ECDD
  0
XRECORD
  5
3ECDB
102
{ACAD_REACTORS
330
3ECDA
102
}
330
3ECDA
100
AcDbXrecord
280
     1
102
MATERIAL
148
0.0
149
0.0
149
0.0
 93
        0
 94
       63
282
     0
 72
     1
 77
     1
171
     1
175
     1
179
     1
273
     0
  0
XRECORD
  5
3ECD9
102
{ACAD_REACTORS
330
3ECD8
102
}
330
3ECD8
100
AcDbXrecord
280
     1
102
MATERIAL
148
0.0
149
0.0
149
0.0
 93
        0
 94
       63
282
     0
 72
     1
 77
     1
171
     1
175
     1
179
     1
273
     0
  0
XRECORD
  5
3ECD7
102
{ACAD_REACTORS
330
3ECD6
102
}
330
3ECD6
100
AcDbXrecord
280
     1
102
MATERIAL
148
0.0
149
0.0
149
0.0
 93
        0
 94
       63
282
     0
 72
     1
 77
     1
171
     1
175
     1
179
     1
273
     0
  0
XRECORD
  5
3ECDD
102
{ACAD_REACTORS
330
3ECDC
102
}
330
3ECDC
100
AcDbXrecord
280
     1
102
ACAD_ROUNDTRIP_PRE2007_TABLESTYLE
 90
      512
 91
        0
  1

 92
      512
 93
        0
  2

 94
      512
 95
        0
  3

  0
ENDSEC
  0
EOF
